  0
SECTION
  2
HEADER
  9
$ACADVER
  1
AC1009
  9
$LIMMIN
 10
0.000000
 20
0.000000
  9
$LIMMAX
 10
958.877438
 20
1427.321961
  9
$MEASUREMENT
 70
1
  0
ENDSEC
  0
SECTION
  2
TABLES
  0
TABLE
  2
LTYPE
 70
     4
  0
LTYPE
  2
CONTINUOUS
 70
     0
  3
Solid line
 72
     65
 73
     0
 40
0.000000
  0
LTYPE
  2
HIDDEN
 70
     0
  3
 _ _ _ _ _ _ _ _ _ _ _
 72
     65
 73
     2
 40
0.375000
 49
0.250000
 49
-0.125000
  0
LTYPE
  2
DASHED
 70
     0
  3
 ___ ___ ___ ___ ___ ___ ___ 
 72
     65
 73
     2
 40
0.750000
 49
0.500000
 49
-0.250000
  0
LTYPE
  2
CENTER
 70
     0
  3
___ _ ___ _ ___ _ ___
 72
     65
 73
     4
 40
2.000000
 49
1.250000
 49
-0.250000
 49
0.250000
 49
-0.250000
  0
LTYPE
  2
BORDER
 70
     0
  3
___ ___ . ___ ___ . ___ ___
 72
     65
 73
     6
 40
1.750000
 49
0.500000
 49
-0.250000
 49
0.500000
 49
-0.250000
 49
0.000000
 49
-0.250000
  0
LTYPE
  2
DOT
 70
     0
  3
.................
 72
     65
 73
     2
 40
0.250000
 49
0.000000
 49
-0.250000
  0
LTYPE
  2
DASHDOT
 70
     0
  3
__ . __ . __ . __
 72
     65
 73
     4
 40
1.000000
 49
0.500000
 49
-0.250000
 49
0.000000
 49
-0.250000
  0
LTYPE
  2
DIVIDE
 70
     0
  3
___ .. ___ .. ___ .. ___
 72
     65
 73
     6
 40
1.250000
 49
0.500000
 49
-0.250000
 49
0.000000
 49
-0.250000
 49
0.000000
 49
-0.250000
  0
ENDTAB
  0
TABLE
  2
LAYER
 70
     8
  0
LAYER
  2
BLACK
 70
     0
 62
     1
  6
CONTINUOUS
  0
LAYER
  2
WHITE
 70
     0
 62
     7
  6
CONTINUOUS
  0
LAYER
  2
RED
 70
     0
 62
     1
  6
CONTINUOUS
  0
LAYER
  2
YELLOW
 70
     0
 62
     2
  6
CONTINUOUS
  0
LAYER
  2
GREEN
 70
     0
 62
     3
  6
CONTINUOUS
  0
LAYER
  2
CYAN
 70
     0
 62
     4
  6
CONTINUOUS
  0
LAYER
  2
BLUE
 70
     0
 62
     5
  6
CONTINUOUS
  0
LAYER
  2
MAGENTA
 70
     0
 62
     6
  6
CONTINUOUS
  0
ENDTAB
  0
TABLE
  2
APPID
 70
     1
  0
APPID
  2
TC_BEND_DATA
 70
     0
  0
ENDTAB
  0
ENDSEC
  0
SECTION
  2
BLOCKS
  0
ENDSEC
  0
SECTION
  2
ENTITIES
  0
LINE
  8
WHITE
 10
0.000000
 20
1427.321961
 30
0.000000
 11
958.877438
 21
1427.321961
 31
0.000000
  6
CONTINUOUS
  0
LINE
  8
WHITE
 10
958.877438
 20
1427.321961
 30
0.000000
 11
958.877438
 21
0.000000
 31
0.000000
  6
CONTINUOUS
  0
LINE
  8
WHITE
 10
958.877438
 20
0.000000
 30
0.000000
 11
0.000000
 21
0.000000
 31
0.000000
  6
CONTINUOUS
  0
LINE
  8
WHITE
 10
0.000000
 20
0.000000
 30
0.000000
 11
0.000000
 21
1427.321961
 31
0.000000
  6
CONTINUOUS
  0
ARC
  8
WHITE
 10
815.581629
 20
1300.538893
 30
0.000000
 40
31.036113
 50
86.656330
 51
138.117103
  6
CONTINUOUS
  0
ARC
  8
WHITE
 10
822.156036
 20
1294.485646
 30
0.000000
 40
39.972214
 50
137.948585
 51
172.891698
  6
CONTINUOUS
  0
ARC
  8
WHITE
 10
816.834341
 20
1294.655402
 30
0.000000
 40
34.673878
 50
172.081847
 51
207.324548
  6
CONTINUOUS
  0
ARC
  8
WHITE
 10
812.720630
 20
1292.984409
 30
0.000000
 40
30.254831
 50
-151.910775
 51
-134.238595
  6
CONTINUOUS
  0
ARC
  8
WHITE
 10
836.776643
 20
1322.086231
 30
0.000000
 40
67.956486
 50
-131.650912
 51
-124.275693
  6
CONTINUOUS
  0
ARC
  8
WHITE
 10
816.534813
 20
1292.067259
 30
0.000000
 40
31.751493
 50
-124.599373
 51
-65.388535
  6
CONTINUOUS
  0
ARC
  8
WHITE
 10
814.334289
 20
1299.879068
 30
0.000000
 40
39.789782
 50
-67.192695
 51
-31.754476
  6
CONTINUOUS
  0
ARC
  8
WHITE
 10
821.075706
 20
1296.129396
 30
0.000000
 40
32.086115
 50
-32.396421
 51
0.564054
  6
CONTINUOUS
  0
ARC
  8
WHITE
 10
815.940110
 20
1294.951032
 30
0.000000
 40
37.250138
 50
2.298951
 51
44.864028
  6
CONTINUOUS
  0
ARC
  8
WHITE
 10
817.410701
 20
1296.183171
 30
0.000000
 40
35.339006
 50
45.130047
 51
90.030630
  6
CONTINUOUS
  0
ARC
  8
WHITE
 10
164.525405
 20
1317.755468
 30
0.000000
 40
44.338179
 50
-142.156832
 51
-127.651496
  6
CONTINUOUS
  0
ARC
  8
WHITE
 10
150.884700
 20
1299.386157
 30
0.000000
 40
21.466054
 50
-128.775588
 51
-76.316238
  6
CONTINUOUS
  0
ARC
  8
WHITE
 10
162.726699
 20
1216.719708
 30
0.000000
 40
62.178675
 50
82.673968
 51
96.245116
  6
CONTINUOUS
  0
ARC
  8
WHITE
 10
179.276926
 20
1375.475484
 30
0.000000
 40
97.466749
 50
-95.074775
 51
-88.580855
  6
CONTINUOUS
  0
ARC
  8
WHITE
 10
180.250714
 20
1305.897147
 30
0.000000
 40
27.895713
 50
-87.040833
 51
-70.033106
  6
CONTINUOUS
  0
ARC
  8
WHITE
 10
167.901551
 20
1333.131672
 30
0.000000
 40
57.756218
 50
-67.743999
 51
-61.578191
  6
CONTINUOUS
  0
ARC
  8
WHITE
 10
210.477646
 20
1258.715662
 30
0.000000
 40
28.027988
 50
103.504280
 51
122.565651
  6
CONTINUOUS
  0
ARC
  8
WHITE
 10
206.733390
 20
1270.882532
 30
0.000000
 40
15.343997
 50
65.736031
 51
100.517326
  6
CONTINUOUS
  0
ARC
  8
WHITE
 10
189.478874
 20
1106.498987
 30
0.000000
 40
179.921297
 50
72.680744
 51
82.475732
  6
CONTINUOUS
  0
ARC
  8
WHITE
 10
144.348478
 20
971.773748
 30
0.000000
 40
321.987091
 50
68.046011
 51
72.150980
  6
CONTINUOUS
  0
ARC
  8
WHITE
 10
609.432439
 20
2129.384245
 30
0.000000
 40
925.556841
 50
-111.865568
 51
-109.723486
  6
CONTINUOUS
  0
ARC
  8
WHITE
 10
316.011699
 20
1310.361786
 30
0.000000
 40
55.560942
 50
-109.927901
 51
-92.083598
  6
CONTINUOUS
  0
ARC
  8
WHITE
 10
316.338840
 20
1297.421804
 30
0.000000
 40
42.648864
 50
-93.154900
 51
-81.537908
  6
CONTINUOUS
  0
ARC
  8
WHITE
 10
320.271185
 20
1267.235254
 30
0.000000
 40
12.224772
 50
-78.947224
 51
-58.692941
  6
CONTINUOUS
  0
ARC
  8
WHITE
 10
323.412077
 20
1261.191427
 30
0.000000
 40
5.448071
 50
-53.881589
 51
-8.392550
  6
CONTINUOUS
  0
ARC
  8
WHITE
 10
317.459892
 20
1312.454745
 30
0.000000
 40
53.279688
 50
-97.102788
 51
-77.709111
  6
CONTINUOUS
  0
ARC
  8
WHITE
 10
320.962455
 20
1337.950384
 30
0.000000
 40
79.013424
 50
-109.599118
 51
-97.337120
  6
CONTINUOUS
  0
ARC
  8
WHITE
 10
411.937613
 20
1585.696781
 30
0.000000
 40
342.932347
 50
-115.330511
 51
-110.033682
  6
CONTINUOUS
  0
ARC
  8
WHITE
 10
105.928081
 20
933.154729
 30
0.000000
 40
377.802747
 50
65.063022
 51
69.270152
  6
CONTINUOUS
  0
ARC
  8
WHITE
 10
194.767688
 20
1161.654778
 30
0.000000
 40
132.668362
 50
70.223661
 51
75.464822
  6
CONTINUOUS
  0
LINE
  8
WHITE
 10
228.064046
 20
1290.076921
 30
0.000000
 11
216.961880
 21
1292.526214
 31
0.000000
  6
CONTINUOUS
  0
ARC
  8
WHITE
 10
238.037206
 20
1368.445782
 30
0.000000
 40
78.790546
 50
-113.272733
 51
-105.514692
  6
CONTINUOUS
  0
ARC
  8
WHITE
 10
245.341479
 20
1391.264376
 30
0.000000
 40
102.664372
 50
-114.776256
 51
-111.985751
  6
CONTINUOUS
  0
ARC
  8
WHITE
 10
197.180470
 20
1289.523500
 30
0.000000
 40
9.954432
 50
58.933248
 51
86.716916
  6
CONTINUOUS
  0
ARC
  8
WHITE
 10
201.267831
 20
1353.324122
 30
0.000000
 40
53.977246
 50
-113.660147
 51
-93.736169
  6
CONTINUOUS
  0
ARC
  8
WHITE
 10
197.737361
 20
1345.126257
 30
0.000000
 40
45.051698
 50
-124.170807
 51
-113.731603
  6
CONTINUOUS
  0
ARC
  8
WHITE
 10
71.219439
 20
1153.776727
 30
0.000000
 40
184.346078
 50
56.698551
 51
66.269304
  6
CONTINUOUS
  0
ARC
  8
WHITE
 10
22.743558
 20
1031.338512
 30
0.000000
 40
315.978284
 50
67.157253
 51
75.533608
  6
CONTINUOUS
  0
ARC
  8
WHITE
 10
154.626197
 20
1506.782074
 30
0.000000
 40
177.561582
 50
-114.802482
 51
-107.349045
  6
CONTINUOUS
  0
ARC
  8
WHITE
 10
123.604466
 20
1439.889098
 30
0.000000
 40
103.825559
 50
-127.495878
 51
-114.747719
  6
CONTINUOUS
  0
LINE
  8
WHITE
 10
60.405396
 20
1357.514197
 30
0.000000
 11
59.998848
 21
1357.104318
 31
0.000000
  6
CONTINUOUS
  0
ARC
  8
WHITE
 10
75.884226
 20
1364.573568
 30
0.000000
 40
17.553772
 50
-154.817252
 51
-123.041582
  6
CONTINUOUS
  0
ARC
  8
WHITE
 10
95.355136
 20
1392.225724
 30
0.000000
 40
51.365435
 50
-124.430133
 51
-114.252995
  6
CONTINUOUS
  0
ARC
  8
WHITE
 10
487.080111
 20
2191.168919
 30
0.000000
 40
941.147915
 50
-116.017076
 51
-113.933852
  6
CONTINUOUS
  0
ARC
  8
WHITE
 10
-453.765644
 20
81.603293
 30
0.000000
 40
1368.715635
 50
64.818647
 51
65.893075
  6
CONTINUOUS
  0
ARC
  8
WHITE
 10
-64.335764
 20
910.033288
 30
0.000000
 40
453.318522
 50
62.377579
 51
64.810593
  6
CONTINUOUS
  0
ARC
  8
WHITE
 10
114.327283
 20
1250.705085
 30
0.000000
 40
68.640797
 50
50.620721
 51
62.669234
  6
CONTINUOUS
  0
ARC
  8
WHITE
 10
146.831482
 20
1289.371055
 30
0.000000
 40
18.140799
 50
35.404091
 51
52.493609
  6
CONTINUOUS
  0
ARC
  8
WHITE
 10
159.028252
 20
1297.586655
 30
0.000000
 40
3.459561
 50
-36.005296
 51
41.537706
  6
CONTINUOUS
  0
ARC
  8
WHITE
 10
156.818674
 20
1300.839074
 30
0.000000
 40
7.281886
 50
-78.987889
 51
-46.546467
  6
CONTINUOUS
  0
ARC
  8
WHITE
 10
146.070282
 20
1332.624308
 30
0.000000
 40
40.781678
 50
-93.062906
 51
-72.682480
  6
CONTINUOUS
  0
ARC
  8
WHITE
 10
140.897118
 20
1246.438797
 30
0.000000
 40
45.560579
 50
86.231978
 51
104.471172
  6
CONTINUOUS
  0
ARC
  8
WHITE
 10
741.774437
 20
973.201952
 30
0.000000
 40
8.878386
 50
-85.961323
 51
-42.203764
  6
CONTINUOUS
  0
ARC
  8
WHITE
 10
704.194810
 20
1005.748302
 30
0.000000
 40
58.590536
 50
-41.093005
 51
-15.397404
  6
CONTINUOUS
  0
ARC
  8
WHITE
 10
639.497598
 20
1019.617877
 30
0.000000
 40
124.706240
 50
-13.648410
 51
-8.365110
  6
CONTINUOUS
  0
ARC
  8
WHITE
 10
812.166078
 20
996.967574
 30
0.000000
 40
49.494696
 50
162.302369
 51
174.774271
  6
CONTINUOUS
  0
ARC
  8
WHITE
 10
789.064362
 20
1002.812261
 30
0.000000
 40
25.750665
 50
136.573308
 51
159.063921
  6
CONTINUOUS
  0
ARC
  8
WHITE
 10
796.757252
 20
994.056267
 30
0.000000
 40
37.372102
 50
120.405436
 51
134.931440
  6
CONTINUOUS
  0
ARC
  8
WHITE
 10
791.664870
 20
1008.263617
 30
0.000000
 40
22.714474
 50
116.293639
 51
127.482595
  6
CONTINUOUS
  0
ARC
  8
WHITE
 10
784.619840
 20
1020.760956
 30
0.000000
 40
8.425612
 50
96.349553
 51
110.980841
  6
CONTINUOUS
  0
ARC
  8
WHITE
 10
784.388884
 20
1027.597051
 30
0.000000
 40
1.690012
 50
-30.810346
 51
114.501062
  6
CONTINUOUS
  0
ARC
  8
WHITE
 10
808.503705
 20
1016.729656
 30
0.000000
 40
24.772198
 50
156.187182
 51
175.175423
  6
CONTINUOUS
  0
ARC
  8
WHITE
 10
1076.835488
 20
1014.182464
 30
0.000000
 40
293.052798
 50
179.094605
 51
182.102104
  6
CONTINUOUS
  0
ARC
  8
WHITE
 10
850.827457
 20
1004.403893
 30
0.000000
 40
66.854604
 50
-179.168037
 51
-156.086879
  6
CONTINUOUS
  0
ARC
  8
WHITE
 10
535.899472
 20
856.545268
 30
0.000000
 40
281.075313
 50
24.415342
 51
25.444231
  6
CONTINUOUS
  0
ARC
  8
WHITE
 10
803.871248
 20
978.086917
 30
0.000000
 40
13.171914
 50
-155.989735
 51
-135.409651
  6
CONTINUOUS
  0
ARC
  8
WHITE
 10
798.922127
 20
972.984669
 30
0.000000
 40
6.067564
 50
-136.912102
 51
-116.020982
  6
CONTINUOUS
  0
ARC
  8
WHITE
 10
797.018986
 20
970.265348
 30
0.000000
 40
2.836544
 50
-105.513996
 51
-18.393278
  6
CONTINUOUS
  0
ARC
  8
WHITE
 10
789.389306
 20
974.409236
 30
0.000000
 40
11.485655
 50
-26.021895
 51
-5.932520
  6
CONTINUOUS
  0
ARC
  8
WHITE
 10
740.357672
 20
986.507365
 30
0.000000
 40
61.898293
 50
-12.393842
 51
1.592433
  6
CONTINUOUS
  0
ARC
  8
WHITE
 10
631.196271
 20
972.127437
 30
0.000000
 40
171.791888
 50
5.377560
 51
12.938975
  6
CONTINUOUS
  0
ARC
  8
WHITE
 10
754.965524
 20
1000.648183
 30
0.000000
 40
44.779154
 50
12.832752
 51
27.337180
  6
CONTINUOUS
  0
ARC
  8
WHITE
 10
496.200253
 20
869.477065
 30
0.000000
 40
334.890537
 50
26.941978
 51
28.881399
  6
CONTINUOUS
  0
ARC
  8
WHITE
 10
799.696285
 20
1030.163281
 30
0.000000
 40
10.313882
 50
133.528033
 51
174.071509
  6
CONTINUOUS
  0
ARC
  8
WHITE
 10
813.587908
 20
1017.679238
 30
0.000000
 40
28.970100
 50
123.817314
 51
136.444642
  6
CONTINUOUS
  0
ARC
  8
WHITE
 10
729.632295
 20
1136.107455
 30
0.000000
 40
116.210705
 50
-54.288668
 51
-48.779301
  6
CONTINUOUS
  0
ARC
  8
WHITE
 10
2273.529991
 20
-756.716203
 30
0.000000
 40
2326.486815
 50
128.689123
 51
129.101917
  6
CONTINUOUS
  0
ARC
  8
WHITE
 10
1300.048949
 20
437.882637
 30
0.000000
 40
785.635579
 50
127.427186
 51
127.732788
  6
CONTINUOUS
  0
ARC
  8
WHITE
 10
819.397429
 20
1067.364648
 30
0.000000
 40
6.429252
 50
-60.362184
 51
-4.649207
  6
CONTINUOUS
  0
ARC
  8
WHITE
 10
823.461282
 20
1066.701820
 30
0.000000
 40
2.348524
 50
3.459194
 51
79.864257
  6
CONTINUOUS
  0
ARC
  8
WHITE
 10
824.232086
 20
1072.790199
 30
0.000000
 40
3.793391
 50
-142.801839
 51
-95.407888
  6
CONTINUOUS
  0
ARC
  8
WHITE
 10
820.716892
 20
1054.259159
 30
0.000000
 40
16.245156
 50
88.258931
 51
124.960300
  6
CONTINUOUS
  0
ARC
  8
WHITE
 10
862.891957
 20
992.008474
 30
0.000000
 40
91.436025
 50
124.267465
 51
136.484282
  6
CONTINUOUS
  0
ARC
  8
WHITE
 10
1145.413272
 20
716.862625
 30
0.000000
 40
485.794776
 50
135.894474
 51
137.906612
  6
CONTINUOUS
  0
ARC
  8
WHITE
 10
716.814320
 20
1102.601601
 30
0.000000
 40
90.831383
 50
-46.121087
 51
-41.419304
  6
CONTINUOUS
  0
ARC
  8
WHITE
 10
770.380002
 20
1048.608236
 30
0.000000
 40
14.831764
 50
-77.719244
 51
-50.706399
  6
CONTINUOUS
  0
ARC
  8
WHITE
 10
770.921970
 20
1044.120404
 30
0.000000
 40
10.340087
 50
-111.686981
 51
-75.363574
  6
CONTINUOUS
  0
ARC
  8
WHITE
 10
769.673435
 20
1042.245101
 30
0.000000
 40
8.149547
 50
-130.018927
 51
-108.400726
  6
CONTINUOUS
  0
ARC
  8
WHITE
 10
752.523659
 20
1014.917828
 30
0.000000
 40
24.216816
 50
60.542522
 51
88.718680
  6
CONTINUOUS
  0
ARC
  8
WHITE
 10
751.036461
 20
973.489552
 30
0.000000
 40
65.670381
 50
88.229711
 51
97.326536
  6
CONTINUOUS
  0
ARC
  8
WHITE
 10
739.913685
 20
1069.453932
 30
0.000000
 40
30.952413
 50
-101.789223
 51
-84.906069
  6
CONTINUOUS
  0
ARC
  8
WHITE
 10
730.842275
 20
1025.570142
 30
0.000000
 40
13.859349
 50
78.566004
 51
111.538194
  6
CONTINUOUS
  0
ARC
  8
WHITE
 10
728.066362
 20
1030.064850
 30
0.000000
 40
8.709403
 50
105.395326
 51
151.277445
  6
CONTINUOUS
  0
ARC
  8
WHITE
 10
722.786851
 20
1032.803272
 30
0.000000
 40
2.766827
 50
148.466424
 51
211.520174
  6
CONTINUOUS
  0
ARC
  8
WHITE
 10
723.359375
 20
1033.870332
 30
0.000000
 40
3.861274
 50
-139.385614
 51
-96.974021
  6
CONTINUOUS
  0
ARC
  8
WHITE
 10
745.961753
 20
1095.831540
 30
0.000000
 40
69.721732
 50
-109.323663
 51
-91.674186
  6
CONTINUOUS
  0
ARC
  8
WHITE
 10
747.044892
 20
1132.582089
 30
0.000000
 40
106.488238
 50
-91.679016
 51
-85.899518
  6
CONTINUOUS
  0
ARC
  8
WHITE
 10
757.214661
 20
1005.758734
 30
0.000000
 40
20.765521
 50
67.456775
 51
97.068277
  6
CONTINUOUS
  0
ARC
  8
WHITE
 10
752.587165
 20
1026.824196
 30
0.000000
 40
12.729174
 50
-46.443296
 51
-8.523351
  6
CONTINUOUS
  0
ARC
  8
WHITE
 10
799.035682
 20
977.990369
 30
0.000000
 40
54.666726
 50
133.568103
 51
149.020039
  6
CONTINUOUS
  0
ARC
  8
WHITE
 10
1026.193609
 20
852.246688
 30
0.000000
 40
314.277441
 50
150.683092
 51
152.698921
  6
CONTINUOUS
  0
ARC
  8
WHITE
 10
782.069788
 20
975.919306
 30
0.000000
 40
40.675407
 50
149.775050
 51
173.137988
  6
CONTINUOUS
  0
LINE
  8
WHITE
 10
741.685748
 20
980.779147
 30
0.000000
 11
741.579754
 21
972.486990
 31
0.000000
  6
CONTINUOUS
  0
ARC
  8
WHITE
 10
756.605460
 20
969.888373
 30
0.000000
 40
15.248760
 50
170.188053
 51
201.314638
  6
CONTINUOUS
  0
ARC
  8
WHITE
 10
858.982143
 20
197.660974
 30
0.000000
 40
29.668354
 50
129.329109
 51
139.976487
  6
CONTINUOUS
  0
ARC
  8
WHITE
 10
848.671903
 20
210.371722
 30
0.000000
 40
13.302240
 50
118.176802
 51
129.676189
  6
CONTINUOUS
  0
ARC
  8
WHITE
 10
843.544576
 20
220.570501
 30
0.000000
 40
1.914019
 50
49.366680
 51
127.075942
  6
CONTINUOUS
  0
ARC
  8
WHITE
 10
840.982167
 20
220.188812
 30
0.000000
 40
4.227493
 50
-9.138594
 51
25.714031
  6
CONTINUOUS
  0
ARC
  8
WHITE
 10
799.800318
 20
227.129909
 30
0.000000
 40
45.990092
 50
-22.214772
 51
-9.527747
  6
CONTINUOUS
  0
LINE
  8
WHITE
 10
842.376709
 20
209.741999
 30
0.000000
 11
834.598183
 21
192.289452
 31
0.000000
  6
CONTINUOUS
  0
ARC
  8
WHITE
 10
1081.850915
 20
106.079730
 30
0.000000
 40
261.851159
 50
160.777846
 51
164.436016
  6
CONTINUOUS
  0
ARC
  8
WHITE
 10
1096.084333
 20
99.653620
 30
0.000000
 40
277.297016
 50
163.946017
 51
169.992341
  6
CONTINUOUS
  0
ARC
  8
WHITE
 10
988.556601
 20
116.377637
 30
0.000000
 40
168.513651
 50
169.238662
 51
184.163220
  6
CONTINUOUS
  0
ARC
  8
WHITE
 10
1794.042581
 20
196.657889
 30
0.000000
 40
977.940756
 50
-174.571655
 51
-173.285825
  6
CONTINUOUS
  0
ARC
  8
WHITE
 10
967.891610
 20
99.959864
 30
0.000000
 40
146.151199
 50
-173.067941
 51
-164.464642
  6
CONTINUOUS
  0
ARC
  8
WHITE
 10
828.096875
 20
66.604404
 30
0.000000
 40
5.877292
 50
-152.039140
 51
-99.963380
  6
CONTINUOUS
  0
ARC
  8
WHITE
 10
918.373831
 20
122.781236
 30
0.000000
 40
112.192754
 50
-153.620576
 51
-148.312967
  6
CONTINUOUS
  0
ARC
  8
WHITE
 10
924.777069
 20
136.492665
 30
0.000000
 40
124.380049
 50
-167.232861
 51
-149.268478
  6
CONTINUOUS
  0
ARC
  8
WHITE
 10
817.352455
 20
112.746802
 30
0.000000
 40
14.375536
 50
-179.478895
 51
-164.916959
  6
CONTINUOUS
  0
ARC
  8
WHITE
 10
1042.218020
 20
132.427486
 30
0.000000
 40
240.059394
 50
177.971906
 51
184.733844
  6
CONTINUOUS
  0
ARC
  8
WHITE
 10
1430.016398
 20
105.512015
 30
0.000000
 40
628.705431
 50
175.802929
 51
176.771177
  6
CONTINUOUS
  0
ARC
  8
WHITE
 10
837.970076
 20
145.989800
 30
0.000000
 40
35.408412
 50
163.497439
 51
171.006041
  6
CONTINUOUS
  0
ARC
  8
WHITE
 10
967.985357
 20
115.950729
 30
0.000000
 40
168.796737
 50
154.424893
 51
166.258206
  6
CONTINUOUS
  0
ARC
  8
WHITE
 10
897.727223
 20
150.023171
 30
0.000000
 40
90.714518
 50
132.653267
 51
154.680077
  6
CONTINUOUS
  0
ARC
  8
WHITE
 10
100.048126
 20
197.664776
 30
0.000000
 40
29.663093
 50
40.022460
 51
50.671731
  6
CONTINUOUS
  0
ARC
  8
WHITE
 10
110.355248
 20
210.372237
 30
0.000000
 40
13.301496
 50
50.324243
 51
61.824279
  6
CONTINUOUS
  0
ARC
  8
WHITE
 10
115.481958
 20
220.570348
 30
0.000000
 40
1.914150
 50
52.925391
 51
130.629163
  6
CONTINUOUS
  0
ARC
  8
WHITE
 10
118.043682
 20
220.188873
 30
0.000000
 40
4.226847
 50
154.282109
 51
189.139971
  6
CONTINUOUS
  0
ARC
  8
WHITE
 10
159.230005
 20
227.130798
 30
0.000000
 40
45.993995
 50
-170.472025
 51
-157.786069
  6
CONTINUOUS
  0
LINE
  8
WHITE
 10
116.649745
 20
209.742036
 30
0.000000
 11
124.428270
 21
192.289479
 31
0.000000
  6
CONTINUOUS
  0
ARC
  8
WHITE
 10
-122.720784
 20
106.110191
 30
0.000000
 40
261.743242
 50
15.563655
 51
19.223335
  6
CONTINUOUS
  0
ARC
  8
WHITE
 10
-137.054765
 20
99.654302
 30
0.000000
 40
277.293966
 50
10.007636
 51
16.054030
  6
CONTINUOUS
  0
ARC
  8
WHITE
 10
-29.530650
 20
116.377621
 30
0.000000
 40
168.514284
 50
-4.163191
 51
10.761318
  6
CONTINUOUS
  0
ARC
  8
WHITE
 10
-834.977942
 20
196.653605
 30
0.000000
 40
977.902469
 50
-6.714185
 51
-5.428305
  6
CONTINUOUS
  0
ARC
  8
WHITE
 10
-8.865069
 20
99.959874
 30
0.000000
 40
146.151250
 50
-15.535357
 51
-6.932056
  6
CONTINUOUS
  0
ARC
  8
WHITE
 10
130.929706
 20
66.604412
 30
0.000000
 40
5.877302
 50
-80.036536
 51
-27.960868
  6
CONTINUOUS
  0
ARC
  8
WHITE
 10
40.658541
 20
122.777778
 30
0.000000
 40
112.186015
 50
-31.687081
 51
-26.379154
  6
CONTINUOUS
  0
ARC
  8
WHITE
 10
34.249479
 20
136.492671
 30
0.000000
 40
124.380066
 50
-30.731515
 51
-12.767139
  6
CONTINUOUS
  0
ARC
  8
WHITE
 10
141.674076
 20
112.746808
 30
0.000000
 40
14.375569
 50
-15.083013
 51
-0.521114
  6
CONTINUOUS
  0
ARC
  8
WHITE
 10
-83.191437
 20
132.427486
 30
0.000000
 40
240.059374
 50
-4.733843
 51
2.028093
  6
CONTINUOUS
  0
ARC
  8
WHITE
 10
-470.987802
 20
105.512151
 30
0.000000
 40
628.703394
 50
3.228821
 51
4.197071
  6
CONTINUOUS
  0
ARC
  8
WHITE
 10
121.056730
 20
145.989852
 30
0.000000
 40
35.408164
 50
8.993929
 51
16.502582
  6
CONTINUOUS
  0
ARC
  8
WHITE
 10
-8.958719
 20
115.950690
 30
0.000000
 40
168.796673
 50
13.741811
 51
25.575126
  6
CONTINUOUS
  0
ARC
  8
WHITE
 10
61.299444
 20
150.023349
 30
0.000000
 40
90.714335
 50
25.319842
 51
47.346692
  6
CONTINUOUS
  0
ARC
  8
WHITE
 10
797.052124
 20
130.486637
 30
0.000000
 40
13.422215
 50
-166.670460
 51
-139.375906
  6
CONTINUOUS
  0
ARC
  8
WHITE
 10
737.257515
 20
113.040342
 30
0.000000
 40
48.888027
 50
17.071472
 51
31.155894
  6
CONTINUOUS
  0
LINE
  8
WHITE
 10
779.094069
 20
138.333462
 30
0.000000
 11
768.242985
 21
156.347053
 31
0.000000
  6
CONTINUOUS
  0
ARC
  8
WHITE
 10
322.545321
 20
-117.173250
 30
0.000000
 40
522.933805
 50
31.537034
 51
34.993520
  6
CONTINUOUS
  0
ARC
  8
WHITE
 10
443.754617
 20
-35.244636
 30
0.000000
 40
376.659977
 50
35.357726
 51
37.757151
  6
CONTINUOUS
  0
ARC
  8
WHITE
 10
584.583728
 20
75.846654
 30
0.000000
 40
197.302134
 50
37.292999
 51
41.872046
  6
CONTINUOUS
  0
ARC
  8
WHITE
 10
735.331449
 20
211.777469
 30
0.000000
 40
5.711459
 50
-158.261661
 51
-132.101111
  6
CONTINUOUS
  0
LINE
  8
WHITE
 10
730.026160
 20
209.662125
 30
0.000000
 11
730.102807
 21
210.296289
 31
0.000000
  6
CONTINUOUS
  0
LINE
  8
WHITE
 10
730.102807
 20
210.296289
 30
0.000000
 11
730.740366
 21
210.719750
 31
0.000000
  6
CONTINUOUS
  0
ARC
  8
WHITE
 10
731.574622
 20
168.170613
 30
0.000000
 40
42.557314
 50
51.897867
 51
91.123248
  6
CONTINUOUS
  0
ARC
  8
WHITE
 10
706.220226
 20
142.815144
 30
0.000000
 40
78.273668
 50
32.737513
 51
48.744531
  6
CONTINUOUS
  0
ARC
  8
WHITE
 10
656.395207
 20
112.211264
 30
0.000000
 40
136.739920
 50
25.362562
 51
32.233742
  6
CONTINUOUS
  0
ARC
  8
WHITE
 10
669.865524
 20
125.707053
 30
0.000000
 40
118.960719
 50
16.340913
 51
22.266514
  6
CONTINUOUS
  0
ARC
  8
WHITE
 10
387.528863
 20
38.379435
 30
0.000000
 40
414.485061
 50
15.668721
 51
16.944176
  6
CONTINUOUS
  0
ARC
  8
WHITE
 10
719.270393
 20
136.315454
 30
0.000000
 40
68.782090
 50
0.221934
 51
11.749204
  6
CONTINUOUS
  0
ARC
  8
WHITE
 10
1847.563005
 20
151.674169
 30
0.000000
 40
1059.618524
 50
-179.183901
 51
-178.435532
  6
CONTINUOUS
  0
ARC
  8
WHITE
 10
786.241345
 20
123.772791
 30
0.000000
 40
2.336446
 50
-61.729996
 51
-26.104000
  6
CONTINUOUS
  0
LINE
  8
WHITE
 10
787.347949
 20
121.715023
 30
0.000000
 11
786.864695
 21
121.747520
 31
0.000000
  6
CONTINUOUS
  0
ARC
  8
WHITE
 10
162.065381
 20
130.423774
 30
0.000000
 40
13.307489
 50
-40.691264
 51
-13.536575
  6
CONTINUOUS
  0
ARC
  8
WHITE
 10
224.541785
 20
111.896325
 30
0.000000
 40
51.880829
 50
149.658209
 51
162.717855
  6
CONTINUOUS
  0
LINE
  8
WHITE
 10
179.767212
 20
138.104301
 30
0.000000
 11
185.374063
 21
146.800598
 31
0.000000
  6
CONTINUOUS
  0
ARC
  8
WHITE
 10
300.310345
 20
90.030985
 30
0.000000
 40
128.191802
 50
145.621999
 51
153.714199
  6
CONTINUOUS
  0
ARC
  8
WHITE
 10
533.671086
 20
-49.479421
 30
0.000000
 40
399.911792
 50
140.221861
 51
148.004567
  6
CONTINUOUS
  0
LINE
  8
WHITE
 10
226.327797
 20
206.390750
 30
0.000000
 11
226.313582
 21
206.278097
 31
0.000000
  6
CONTINUOUS
  0
ARC
  8
WHITE
 10
212.275871
 20
221.458238
 30
0.000000
 40
20.675929
 50
-47.239147
 51
-40.202543
  6
CONTINUOUS
  0
ARC
  8
WHITE
 10
225.875846
 20
210.249895
 30
0.000000
 40
3.061599
 50
-44.287656
 51
2.779361
  6
CONTINUOUS
  0
LINE
  8
WHITE
 10
228.933843
 20
210.398352
 30
0.000000
 11
228.693297
 21
210.605894
 31
0.000000
  6
CONTINUOUS
  0
LINE
  8
WHITE
 10
228.693297
 20
210.605894
 30
0.000000
 11
228.286197
 21
210.719750
 31
0.000000
  6
CONTINUOUS
  0
ARC
  8
WHITE
 10
227.451943
 20
168.170619
 30
0.000000
 40
42.557309
 50
88.876754
 51
128.102175
  6
CONTINUOUS
  0
ARC
  8
WHITE
 10
252.806284
 20
142.815190
 30
0.000000
 40
78.273598
 50
131.255481
 51
147.262528
  6
CONTINUOUS
  0
ARC
  8
WHITE
 10
302.632049
 20
112.210891
 30
0.000000
 40
136.740704
 50
147.766300
 51
154.637447
  6
CONTINUOUS
  0
ARC
  8
WHITE
 10
289.163371
 20
125.706262
 30
0.000000
 40
118.963178
 50
157.733590
 51
163.659073
  6
CONTINUOUS
  0
ARC
  8
WHITE
 10
564.573440
 20
40.446898
 30
0.000000
 40
407.258849
 50
163.050166
 51
164.348254
  6
CONTINUOUS
  0
ARC
  8
WHITE
 10
239.917482
 20
136.278329
 30
0.000000
 40
68.946679
 50
168.248011
 51
179.747782
  6
CONTINUOUS
  0
ARC
  8
WHITE
 10
-937.122336
 20
152.937742
 30
0.000000
 40
1108.214510
 50
-1.561201
 51
-0.845647
  6
CONTINUOUS
  0
ARC
  8
WHITE
 10
172.778919
 20
123.772791
 30
0.000000
 40
2.336446
 50
-153.896000
 51
-118.270004
  6
CONTINUOUS
  0
LINE
  8
WHITE
 10
171.672314
 20
121.715023
 30
0.000000
 11
172.155568
 21
121.747520
 31
0.000000
  6
CONTINUOUS
  0
ARC
  8
WHITE
 10
75.097768
 20
160.506242
 30
0.000000
 40
29.050807
 50
-149.181093
 51
-121.783735
  6
CONTINUOUS
  0
ARC
  8
WHITE
 10
-3.226091
 20
38.373126
 30
0.000000
 40
116.043616
 50
45.105461
 51
57.105616
  6
CONTINUOUS
  0
ARC
  8
WHITE
 10
16.253066
 20
61.178884
 30
0.000000
 40
86.170014
 50
31.454198
 51
43.577820
  6
CONTINUOUS
  0
ARC
  8
WHITE
 10
-27.934765
 20
31.572529
 30
0.000000
 40
139.331209
 50
21.111814
 51
32.358086
  6
CONTINUOUS
  0
ARC
  8
WHITE
 10
-28.845284
 20
25.724204
 30
0.000000
 40
142.379486
 50
17.676163
 51
23.175778
  6
CONTINUOUS
  0
ARC
  8
WHITE
 10
-337.952653
 20
-24.033530
 30
0.000000
 40
454.381742
 50
10.085481
 51
11.809030
  6
CONTINUOUS
  0
ARC
  8
WHITE
 10
132.007234
 20
60.098225
 30
0.000000
 40
23.055229
 50
-168.588224
 51
-160.731038
  6
CONTINUOUS
  0
ARC
  8
WHITE
 10
114.363359
 20
53.599941
 30
0.000000
 40
4.266714
 50
-164.920676
 51
-122.464239
  6
CONTINUOUS
  0
ARC
  8
WHITE
 10
43.749485
 20
70.701689
 30
0.000000
 40
71.391011
 50
-16.856527
 51
8.752509
  6
CONTINUOUS
  0
ARC
  8
WHITE
 10
107.516527
 20
81.501292
 30
0.000000
 40
6.792909
 50
0.537542
 51
25.795302
  6
CONTINUOUS
  0
ARC
  8
WHITE
 10
28.104298
 20
54.114220
 30
0.000000
 40
90.751217
 50
19.533275
 51
34.172460
  6
CONTINUOUS
  0
ARC
  8
WHITE
 10
-61.652572
 20
-6.827327
 30
0.000000
 40
199.241622
 50
34.173861
 51
44.174613
  6
CONTINUOUS
  0
ARC
  8
WHITE
 10
20.814619
 20
66.462669
 30
0.000000
 40
89.157471
 50
47.326426
 51
69.674594
  6
CONTINUOUS
  0
ARC
  8
WHITE
 10
52.614678
 20
147.696814
 30
0.000000
 40
2.513319
 50
109.309421
 51
168.617482
  6
CONTINUOUS
  0
ARC
  8
WHITE
 10
55.579654
 20
146.904429
 30
0.000000
 40
5.579654
 50
166.649235
 51
193.279757
  6
CONTINUOUS
  0
ARC
  8
WHITE
 10
883.930657
 20
160.504289
 30
0.000000
 40
29.048272
 50
-58.217190
 51
-30.817405
  6
CONTINUOUS
  0
ARC
  8
WHITE
 10
962.253648
 20
38.370282
 30
0.000000
 40
116.046436
 50
122.893993
 51
134.893871
  6
CONTINUOUS
  0
ARC
  8
WHITE
 10
942.770594
 20
61.180869
 30
0.000000
 40
86.166645
 50
136.421770
 51
148.545882
  6
CONTINUOUS
  0
ARC
  8
WHITE
 10
986.960561
 20
31.573065
 30
0.000000
 40
139.330419
 50
147.641909
 51
158.888260
  6
CONTINUOUS
  0
ARC
  8
WHITE
 10
987.824964
 20
25.743735
 30
0.000000
 40
142.328820
 50
156.824006
 51
162.325587
  6
CONTINUOUS
  0
ARC
  8
WHITE
 10
1297.283327
 20
-24.088084
 30
0.000000
 40
454.690512
 50
168.192081
 51
169.914462
  6
CONTINUOUS
  0
ARC
  8
WHITE
 10
827.022854
 20
60.097456
 30
0.000000
 40
23.051817
 50
-19.269989
 51
-11.411630
  6
CONTINUOUS
  0
ARC
  8
WHITE
 10
844.663265
 20
53.600089
 30
0.000000
 40
4.266865
 50
-57.536306
 51
-15.081306
  6
CONTINUOUS
  0
ARC
  8
WHITE
 10
915.274188
 20
70.701132
 30
0.000000
 40
71.387981
 50
171.246740
 51
196.856796
  6
CONTINUOUS
  0
ARC
  8
WHITE
 10
851.511761
 20
81.500600
 30
0.000000
 40
6.794393
 50
154.205399
 51
179.457535
  6
CONTINUOUS
  0
ARC
  8
WHITE
 10
930.936850
 20
54.106253
 30
0.000000
 40
90.767254
 50
145.828505
 51
160.465061
  6
CONTINUOUS
  0
ARC
  8
WHITE
 10
1020.648405
 20
-6.801732
 30
0.000000
 40
199.201316
 50
135.824497
 51
145.827244
  6
CONTINUOUS
  0
ARC
  8
WHITE
 10
938.214567
 20
66.460371
 30
0.000000
 40
89.160510
 50
110.326428
 51
132.673773
  6
CONTINUOUS
  0
ARC
  8
WHITE
 10
906.411784
 20
147.696412
 30
0.000000
 40
2.513757
 50
11.390258
 51
70.689821
  6
CONTINUOUS
  0
ARC
  8
WHITE
 10
903.454544
 20
146.904835
 30
0.000000
 40
5.572389
 50
-13.301675
 51
13.364386
  6
CONTINUOUS
  0
ARC
  8
WHITE
 10
111.633432
 20
112.574357
 30
0.000000
 40
2.765931
 50
-108.196717
 51
-43.615389
  6
CONTINUOUS
  0
ARC
  8
WHITE
 10
105.009905
 20
116.471931
 30
0.000000
 40
10.397727
 50
-33.941644
 51
-0.558668
  6
CONTINUOUS
  0
ARC
  8
WHITE
 10
52.266155
 20
120.324816
 30
0.000000
 40
63.264682
 50
-3.583526
 51
17.048089
  6
CONTINUOUS
  0
ARC
  8
WHITE
 10
59.537613
 20
125.140407
 30
0.000000
 40
54.956564
 50
14.469806
 51
32.285604
  6
CONTINUOUS
  0
ARC
  8
WHITE
 10
69.347933
 20
132.158861
 30
0.000000
 40
42.919722
 50
31.360055
 51
48.463540
  6
CONTINUOUS
  0
ARC
  8
WHITE
 10
-302.836066
 20
-214.484242
 30
0.000000
 40
551.345843
 50
43.392438
 51
45.390177
  6
CONTINUOUS
  0
ARC
  8
WHITE
 10
242.152163
 20
342.318388
 30
0.000000
 40
227.797168
 50
-136.260431
 51
-133.843055
  6
CONTINUOUS
  0
ARC
  8
WHITE
 10
33.695841
 20
143.786986
 30
0.000000
 40
60.075269
 50
43.085359
 51
47.668703
  6
CONTINUOUS
  0
ARC
  8
WHITE
 10
66.049420
 20
180.648251
 30
0.000000
 40
11.074707
 50
42.980539
 51
67.796628
  6
CONTINUOUS
  0
ARC
  8
WHITE
 10
98.555358
 20
189.187855
 30
0.000000
 40
28.372671
 50
176.536852
 51
199.711719
  6
CONTINUOUS
  0
ARC
  8
WHITE
 10
119.549222
 20
195.904097
 30
0.000000
 40
50.407338
 50
-161.150233
 51
-149.739176
  6
CONTINUOUS
  0
ARC
  8
WHITE
 10
245.468242
 20
271.491393
 30
0.000000
 40
197.268432
 50
-149.206920
 51
-144.102166
  6
CONTINUOUS
  0
ARC
  8
WHITE
 10
-551.459856
 20
-357.620348
 30
0.000000
 40
818.265231
 50
37.941335
 51
38.864442
  6
CONTINUOUS
  0
ARC
  8
WHITE
 10
63.251210
 20
122.937082
 30
0.000000
 40
38.020187
 50
21.494789
 51
36.389849
  6
CONTINUOUS
  0
ARC
  8
WHITE
 10
136.405369
 20
145.432488
 30
0.000000
 40
38.736813
 50
-167.227157
 51
-156.260956
  6
CONTINUOUS
  0
ARC
  8
WHITE
 10
356.298512
 20
230.372051
 30
0.000000
 40
274.430140
 50
-158.510115
 51
-156.187587
  6
CONTINUOUS
  0
ARC
  8
WHITE
 10
157.080080
 20
143.005243
 30
0.000000
 40
56.899179
 50
-155.680388
 51
-144.479005
  6
CONTINUOUS
  0
ARC
  8
WHITE
 10
847.632340
 20
113.068847
 30
0.000000
 40
3.183972
 50
-134.783126
 51
-78.685932
  6
CONTINUOUS
  0
ARC
  8
WHITE
 10
853.963475
 20
116.685880
 30
0.000000
 40
10.394810
 50
-178.950480
 51
-145.571786
  6
CONTINUOUS
  0
ARC
  8
WHITE
 10
907.814553
 20
120.144948
 30
0.000000
 40
64.347717
 50
162.991573
 51
183.251261
  6
CONTINUOUS
  0
ARC
  8
WHITE
 10
902.655440
 20
123.715278
 30
0.000000
 40
58.400969
 50
148.123973
 51
164.860919
  6
CONTINUOUS
  0
ARC
  8
WHITE
 10
891.757132
 20
130.417331
 30
0.000000
 40
45.607009
 50
131.974150
 51
148.043724
  6
CONTINUOUS
  0
ARC
  8
WHITE
 10
1258.721641
 20
-211.386278
 30
0.000000
 40
546.934569
 50
134.600725
 51
136.611811
  6
CONTINUOUS
  0
ARC
  8
WHITE
 10
718.792696
 20
340.420469
 30
0.000000
 40
225.099173
 50
-46.167765
 51
-43.724774
  6
CONTINUOUS
  0
ARC
  8
WHITE
 10
925.520806
 20
143.598286
 30
0.000000
 40
60.342712
 50
132.337812
 51
136.894564
  6
CONTINUOUS
  0
ARC
  8
WHITE
 10
892.972789
 20
180.656966
 30
0.000000
 40
11.064981
 50
112.199408
 51
137.003141
  6
CONTINUOUS
  0
ARC
  8
WHITE
 10
860.473655
 20
189.186891
 30
0.000000
 40
28.370314
 50
-19.711416
 51
3.465386
  6
CONTINUOUS
  0
ARC
  8
WHITE
 10
839.481134
 20
195.902535
 30
0.000000
 40
50.403520
 50
-30.261332
 51
-18.849406
  6
CONTINUOUS
  0
ARC
  8
WHITE
 10
713.573586
 20
271.485016
 30
0.000000
 40
197.252298
 50
-35.898899
 51
-30.793725
  6
CONTINUOUS
  0
ARC
  8
WHITE
 10
1509.873334
 20
-357.133127
 30
0.000000
 40
817.482177
 50
141.135177
 51
142.059168
  6
CONTINUOUS
  0
ARC
  8
WHITE
 10
895.779382
 20
122.934617
 30
0.000000
 40
38.024910
 50
143.610594
 51
158.503813
  6
CONTINUOUS
  0
ARC
  8
WHITE
 10
822.599689
 20
145.440268
 30
0.000000
 40
38.759453
 50
-23.736650
 51
-12.776854
  6
CONTINUOUS
  0
ARC
  8
WHITE
 10
602.778909
 20
230.348776
 30
0.000000
 40
274.374118
 50
-23.812237
 51
-21.489235
  6
CONTINUOUS
  0
ARC
  8
WHITE
 10
801.938999
 20
143.008410
 30
0.000000
 40
56.907205
 50
-35.519144
 51
-24.319335
  6
CONTINUOUS
  0
ARC
  8
WHITE
 10
371.922741
 20
793.413138
 30
0.000000
 40
247.222142
 50
77.105133
 51
88.139444
  6
CONTINUOUS
  0
ARC
  8
WHITE
 10
373.871415
 20
870.381822
 30
0.000000
 40
170.231660
 50
87.953889
 51
90.958536
  6
CONTINUOUS
  0
ARC
  8
WHITE
 10
370.823272
 20
941.749785
 30
0.000000
 40
98.840079
 50
89.883852
 51
92.309579
  6
CONTINUOUS
  0
ARC
  8
WHITE
 10
367.107662
 20
1037.551309
 30
0.000000
 40
2.970337
 50
95.167489
 51
251.450328
  6
CONTINUOUS
  0
LINE
  8
WHITE
 10
366.162719
 20
1034.735287
 30
0.000000
 11
381.358657
 21
1034.464731
 31
0.000000
  6
CONTINUOUS
  0
ARC
  8
WHITE
 10
373.152113
 20
803.552235
 30
0.000000
 40
231.058279
 50
81.367776
 51
87.964586
  6
CONTINUOUS
  0
ARC
  8
WHITE
 10
374.572425
 20
808.990421
 30
0.000000
 40
225.469286
 50
76.447645
 51
81.517197
  6
CONTINUOUS
  0
ARC
  8
WHITE
 10
428.868041
 20
1032.165145
 30
0.000000
 40
4.242681
 50
-110.136034
 51
-59.766147
  6
CONTINUOUS
  0
ARC
  8
WHITE
 10
427.732749
 20
1032.366065
 30
0.000000
 40
5.064906
 50
-49.764009
 51
-10.073338
  6
CONTINUOUS
  0
ARC
  8
WHITE
 10
421.840276
 20
1034.426612
 30
0.000000
 40
11.271234
 50
-15.153895
 51
51.715125
  6
CONTINUOUS
  0
ARC
  8
WHITE
 10
401.704082
 20
1014.255221
 30
0.000000
 40
39.718385
 50
46.937521
 51
61.167103
  6
CONTINUOUS
  0
ARC
  8
WHITE
 10
182.524908
 20
622.695393
 30
0.000000
 40
488.447467
 50
60.794649
 51
62.530274
  6
CONTINUOUS
  0
ARC
  8
WHITE
 10
435.472821
 20
1110.073980
 30
0.000000
 40
60.662494
 50
-131.077642
 51
-117.102587
  6
CONTINUOUS
  0
ARC
  8
WHITE
 10
391.491578
 20
1018.625438
 30
0.000000
 40
45.905303
 50
75.739852
 51
84.849444
  6
CONTINUOUS
  0
ARC
  8
WHITE
 10
404.356859
 20
1066.124696
 30
0.000000
 40
3.387757
 50
-117.373611
 51
-24.781666
  6
CONTINUOUS
  0
ARC
  8
WHITE
 10
404.633152
 20
1065.745739
 30
0.000000
 40
2.986797
 50
-20.398917
 51
58.316350
  6
CONTINUOUS
  0
ARC
  8
WHITE
 10
392.546300
 20
1028.116296
 30
0.000000
 40
42.428670
 50
71.225248
 51
87.857638
  6
CONTINUOUS
  0
LINE
  8
WHITE
 10
394.132392
 20
1070.515310
 30
0.000000
 11
394.132347
 21
1070.515535
 31
0.000000
  6
CONTINUOUS
  0
ARC
  8
WHITE
 10
393.135603
 20
1055.253659
 30
0.000000
 40
15.294390
 50
86.263353
 51
106.224111
  6
CONTINUOUS
  0
LINE
  8
WHITE
 10
388.862424
 20
1069.938968
 30
0.000000
 11
388.619847
 21
1070.033891
 31
0.000000
  6
CONTINUOUS
  0
LINE
  8
WHITE
 10
388.619847
 20
1070.033891
 30
0.000000
 11
388.498563
 21
1069.720997
 31
0.000000
  6
CONTINUOUS
  0
ARC
  8
WHITE
 10
389.850586
 20
1067.042932
 30
0.000000
 40
2.999999
 50
116.786958
 51
183.677866
  6
CONTINUOUS
  0
LINE
  8
WHITE
 10
386.856765
 20
1066.850492
 30
0.000000
 11
387.171414
 21
1066.323146
 31
0.000000
  6
CONTINUOUS
  0
LINE
  8
WHITE
 10
387.171414
 20
1066.323146
 30
0.000000
 11
387.076491
 21
1066.080569
 31
0.000000
  6
CONTINUOUS
  0
ARC
  8
WHITE
 10
409.706483
 20
1077.677043
 30
0.000000
 40
25.428227
 50
-152.867661
 51
-123.404216
  6
CONTINUOUS
  0
ARC
  8
WHITE
 10
481.200433
 20
1185.809086
 30
0.000000
 40
155.058161
 50
-123.460539
 51
-116.210489
  6
CONTINUOUS
  0
ARC
  8
WHITE
 10
365.922054
 20
956.495254
 30
0.000000
 40
101.614693
 50
57.048558
 51
62.580460
  6
CONTINUOUS
  0
ARC
  8
WHITE
 10
398.361709
 20
1010.200859
 30
0.000000
 40
38.954676
 50
46.913306
 51
54.119092
  6
CONTINUOUS
  0
ARC
  8
WHITE
 10
420.884179
 20
1033.954975
 30
0.000000
 40
6.225317
 50
4.105193
 51
48.957841
  6
CONTINUOUS
  0
ARC
  8
WHITE
 10
217.986653
 20
97.119606
 30
0.000000
 40
36.439910
 50
112.553119
 51
127.970948
  6
CONTINUOUS
  0
ARC
  8
WHITE
 10
249.289744
 20
51.990767
 30
0.000000
 40
91.327860
 50
126.032582
 51
136.798108
  6
CONTINUOUS
  0
ARC
  8
WHITE
 10
218.169875
 20
79.690164
 30
0.000000
 40
49.693399
 50
135.515420
 51
165.193245
  6
CONTINUOUS
  0
ARC
  8
WHITE
 10
260.482967
 20
69.962919
 30
0.000000
 40
93.097970
 50
166.060604
 51
181.902149
  6
CONTINUOUS
  0
ARC
  8
WHITE
 10
175.435576
 20
67.413618
 30
0.000000
 40
8.017543
 50
-176.131853
 51
-138.563314
  6
CONTINUOUS
  0
ARC
  8
WHITE
 10
172.944953
 20
65.756555
 30
0.000000
 40
5.070005
 50
-133.970279
 51
-120.081321
  6
CONTINUOUS
  0
ARC
  8
WHITE
 10
170.687073
 20
62.801268
 30
0.000000
 40
1.459630
 50
-101.193669
 51
-6.372750
  6
CONTINUOUS
  0
ARC
  8
WHITE
 10
298.661238
 20
32.658093
 30
0.000000
 40
130.027227
 50
162.507436
 51
166.669013
  6
CONTINUOUS
  0
ARC
  8
WHITE
 10
241.063010
 20
48.691516
 30
0.000000
 40
70.302270
 50
147.383324
 51
160.860095
  6
CONTINUOUS
  0
ARC
  8
WHITE
 10
246.493064
 20
46.192057
 30
0.000000
 40
76.227657
 50
143.339642
 51
148.000886
  6
CONTINUOUS
  0
ARC
  8
WHITE
 10
-212.072818
 20
323.415932
 30
0.000000
 40
460.032605
 50
-30.243967
 51
-27.540976
  6
CONTINUOUS
  0
ARC
  8
WHITE
 10
97.088817
 20
162.661417
 30
0.000000
 40
111.575682
 50
-27.753144
 51
-16.606855
  6
CONTINUOUS
  0
ARC
  8
WHITE
 10
783.590988
 20
67.413618
 30
0.000000
 40
8.017543
 50
-41.436686
 51
-3.868147
  6
CONTINUOUS
  0
ARC
  8
WHITE
 10
786.081611
 20
65.756555
 30
0.000000
 40
5.070005
 50
-59.918679
 51
-46.029721
  6
CONTINUOUS
  0
ARC
  8
WHITE
 10
788.339490
 20
62.801268
 30
0.000000
 40
1.459630
 50
-173.627250
 51
-78.806331
  6
CONTINUOUS
  0
ARC
  8
WHITE
 10
660.365325
 20
32.658093
 30
0.000000
 40
130.027228
 50
13.330987
 51
17.492564
  6
CONTINUOUS
  0
ARC
  8
WHITE
 10
717.963453
 20
48.691467
 30
0.000000
 40
70.302381
 50
19.139916
 51
32.616665
  6
CONTINUOUS
  0
ARC
  8
WHITE
 10
712.533499
 20
46.192057
 30
0.000000
 40
76.227658
 50
31.999114
 51
36.660358
  6
CONTINUOUS
  0
ARC
  8
WHITE
 10
1171.099386
 20
323.415934
 30
0.000000
 40
460.032609
 50
-152.459024
 51
-149.756033
  6
CONTINUOUS
  0
ARC
  8
WHITE
 10
861.937747
 20
162.661417
 30
0.000000
 40
111.575682
 50
-163.393145
 51
-152.246856
  6
CONTINUOUS
  0
ARC
  8
WHITE
 10
739.500102
 20
94.760816
 30
0.000000
 40
39.212301
 50
52.361747
 51
66.690907
  6
CONTINUOUS
  0
ARC
  8
WHITE
 10
718.045840
 20
61.261736
 30
0.000000
 40
78.917410
 50
42.423628
 51
54.880236
  6
CONTINUOUS
  0
ARC
  8
WHITE
 10
740.472456
 20
79.449508
 30
0.000000
 40
50.121949
 50
14.956981
 51
44.371149
  6
CONTINUOUS
  0
ARC
  8
WHITE
 10
698.095885
 20
69.899043
 30
0.000000
 40
93.543347
 50
-1.853943
 51
13.909396
  6
CONTINUOUS
  0
ARC
  8
WHITE
 10
470.329767
 20
386.765891
 30
0.000000
 40
3.006008
 50
77.979777
 51
231.064410
  6
CONTINUOUS
  0
ARC
  8
WHITE
 10
473.857801
 20
395.607425
 30
0.000000
 40
12.423070
 50
-115.852477
 51
-97.861253
  6
CONTINUOUS
  0
ARC
  8
WHITE
 10
571.426963
 20
835.916846
 30
0.000000
 40
463.373725
 50
-102.370328
 51
-100.463834
  6
CONTINUOUS
  0
ARC
  8
WHITE
 10
542.426327
 20
634.947992
 30
0.000000
 40
260.602315
 50
-102.218712
 51
-89.507253
  6
CONTINUOUS
  0
ARC
  8
WHITE
 10
543.254010
 20
627.229525
 30
0.000000
 40
252.878161
 50
-89.679739
 51
-79.853448
  6
CONTINUOUS
  0
ARC
  8
WHITE
 10
587.969378
 20
383.511450
 30
0.000000
 40
5.207834
 50
-91.834220
 51
-47.263856
  6
CONTINUOUS
  0
ARC
  8
WHITE
 10
589.140530
 20
381.583979
 30
0.000000
 40
3.030632
 50
-38.766235
 51
110.312920
  6
CONTINUOUS
  0
ARC
  8
WHITE
 10
542.027132
 20
643.487491
 30
0.000000
 40
263.124362
 50
-92.781157
 51
-79.918122
  6
CONTINUOUS
  0
ARC
  8
WHITE
 10
543.612464
 20
644.130535
 30
0.000000
 40
263.848137
 50
-99.532062
 51
-93.118240
  6
CONTINUOUS
  0
ARC
  8
WHITE
 10
748.370767
 20
1704.221389
 30
0.000000
 40
1343.469316
 50
-101.916823
 51
-100.657209
  6
CONTINUOUS
  0
ARC
  8
WHITE
 10
259.433826
 20
949.155304
 30
0.000000
 40
2.996080
 50
96.789636
 51
140.060611
  6
CONTINUOUS
  0
ARC
  8
WHITE
 10
493.825109
 20
762.835685
 30
0.000000
 40
302.418355
 50
141.504072
 51
154.733165
  6
CONTINUOUS
  0
LINE
  8
WHITE
 10
220.339188
 20
891.918266
 30
0.000000
 11
220.340988
 21
891.918266
 31
0.000000
  6
CONTINUOUS
  0
ARC
  8
WHITE
 10
539.186552
 20
741.401426
 30
0.000000
 40
352.587312
 50
154.729496
 51
162.311569
  6
CONTINUOUS
  0
LINE
  8
WHITE
 10
203.268562
 20
848.531797
 30
0.000000
 11
201.914020
 21
844.372414
 31
0.000000
  6
CONTINUOUS
  0
ARC
  8
WHITE
 10
204.693928
 20
843.216628
 30
0.000000
 40
3.010603
 50
157.424218
 51
318.015301
  6
CONTINUOUS
  0
ARC
  8
WHITE
 10
193.127801
 20
848.799942
 30
0.000000
 40
15.756502
 50
-28.826769
 51
-14.423757
  6
CONTINUOUS
  0
ARC
  8
WHITE
 10
535.118584
 20
742.414410
 30
0.000000
 40
342.419769
 50
152.286033
 51
162.588910
  6
CONTINUOUS
  0
ARC
  8
WHITE
 10
501.640606
 20
758.704991
 30
0.000000
 40
305.208470
 50
146.290994
 51
152.070622
  6
CONTINUOUS
  0
ARC
  8
WHITE
 10
488.122615
 20
767.568350
 30
0.000000
 40
289.044385
 50
143.213807
 51
146.265420
  6
CONTINUOUS
  0
LINE
  8
WHITE
 10
256.633993
 20
940.656980
 30
0.000000
 11
261.344708
 21
946.744551
 31
0.000000
  6
CONTINUOUS
  0
ARC
  8
WHITE
 10
259.313864
 20
949.059668
 30
0.000000
 40
3.079626
 50
-48.742433
 51
94.362332
  6
CONTINUOUS
  0
ARC
  8
WHITE
 10
527.747070
 20
773.493385
 30
0.000000
 40
23.484871
 50
-172.276262
 51
-105.783335
  6
CONTINUOUS
  0
ARC
  8
WHITE
 10
531.670931
 20
787.299611
 30
0.000000
 40
37.837860
 50
-105.814561
 51
-69.703088
  6
CONTINUOUS
  0
ARC
  8
WHITE
 10
530.655930
 20
792.953043
 30
0.000000
 40
43.504050
 50
-71.032232
 51
-43.549973
  6
CONTINUOUS
  0
ARC
  8
WHITE
 10
560.203878
 20
765.200848
 30
0.000000
 40
2.977595
 50
-48.252096
 51
127.478820
  6
CONTINUOUS
  0
ARC
  8
WHITE
 10
529.599397
 20
795.197490
 30
0.000000
 40
39.907905
 50
-68.405000
 51
-43.823286
  6
CONTINUOUS
  0
ARC
  8
WHITE
 10
531.021874
 20
790.391097
 30
0.000000
 40
34.918198
 50
-92.245168
 51
-67.672617
  6
CONTINUOUS
  0
ARC
  8
WHITE
 10
530.271337
 20
778.575911
 30
0.000000
 40
23.084464
 50
-124.042865
 51
-91.532578
  6
CONTINUOUS
  0
ARC
  8
WHITE
 10
527.333193
 20
773.094070
 30
0.000000
 40
16.909193
 50
-165.086660
 51
-126.192330
  6
CONTINUOUS
  0
ARC
  8
WHITE
 10
540.378511
 20
776.035951
 30
0.000000
 40
30.276583
 50
156.026611
 51
193.939596
  6
CONTINUOUS
  0
ARC
  8
WHITE
 10
526.516789
 20
782.586136
 30
0.000000
 40
14.953398
 50
128.542981
 51
157.379072
  6
CONTINUOUS
  0
ARC
  8
WHITE
 10
520.896563
 20
790.372740
 30
0.000000
 40
5.380565
 50
63.131556
 51
133.404982
  6
CONTINUOUS
  0
ARC
  8
WHITE
 10
518.240988
 20
787.685650
 30
0.000000
 40
9.051670
 50
-17.099515
 51
55.803876
  6
CONTINUOUS
  0
ARC
  8
WHITE
 10
529.570325
 20
783.754034
 30
0.000000
 40
2.963749
 50
154.624029
 51
322.085922
  6
CONTINUOUS
  0
ARC
  8
WHITE
 10
518.676646
 20
787.981972
 30
0.000000
 40
14.549028
 50
-24.568034
 51
26.403523
  6
CONTINUOUS
  0
ARC
  8
WHITE
 10
520.305597
 20
789.437697
 30
0.000000
 40
12.456143
 50
23.737016
 51
83.375276
  6
CONTINUOUS
  0
LINE
  8
WHITE
 10
521.742609
 20
801.810671
 30
0.000000
 11
521.742501
 21
801.811040
 31
0.000000
  6
CONTINUOUS
  0
ARC
  8
WHITE
 10
521.146298
 20
789.615696
 30
0.000000
 40
12.209909
 50
87.201163
 51
134.542286
  6
CONTINUOUS
  0
ARC
  8
WHITE
 10
532.723713
 20
778.228928
 30
0.000000
 40
28.447673
 50
135.075062
 51
165.489640
  6
CONTINUOUS
  0
ARC
  8
WHITE
 10
545.443799
 20
775.936083
 30
0.000000
 40
41.347821
 50
166.830254
 51
187.784958
  6
CONTINUOUS
  0
LINE
  8
WHITE
 10
504.477063
 20
770.335295
 30
0.000000
 11
504.475263
 21
770.337095
 31
0.000000
  6
CONTINUOUS
  0
ARC
  8
WHITE
 10
676.264535
 20
539.074481
 30
0.000000
 40
38.295459
 50
-138.117908
 51
-92.759359
  6
CONTINUOUS
  0
ARC
  8
WHITE
 10
677.257554
 20
545.739088
 30
0.000000
 40
45.005147
 50
-93.613668
 51
-55.044754
  6
CONTINUOUS
  0
ARC
  8
WHITE
 10
685.723358
 20
534.586930
 30
0.000000
 40
31.019333
 50
-56.059038
 51
-22.722331
  6
CONTINUOUS
  0
ARC
  8
WHITE
 10
710.980826
 20
524.680013
 30
0.000000
 40
3.944185
 50
-31.738015
 51
25.210819
  6
CONTINUOUS
  0
ARC
  8
WHITE
 10
712.041649
 20
524.898027
 30
0.000000
 40
2.902734
 50
30.242922
 51
105.340580
  6
CONTINUOUS
  0
ARC
  8
WHITE
 10
712.081602
 20
524.554495
 30
0.000000
 40
3.245019
 50
104.416149
 51
169.997918
  6
CONTINUOUS
  0
ARC
  8
WHITE
 10
685.627469
 20
534.665594
 30
0.000000
 40
25.141784
 50
-55.033203
 51
-22.317950
  6
CONTINUOUS
  0
ARC
  8
WHITE
 10
677.066259
 20
546.440954
 30
0.000000
 40
39.698850
 50
-90.886141
 51
-54.647418
  6
CONTINUOUS
  0
ARC
  8
WHITE
 10
676.490169
 20
539.503517
 30
0.000000
 40
32.756687
 50
-123.034104
 51
-90.066241
  6
CONTINUOUS
  0
ARC
  8
WHITE
 10
684.374358
 20
549.013171
 30
0.000000
 40
45.049605
 50
-160.771285
 51
-124.847545
  6
CONTINUOUS
  0
ARC
  8
WHITE
 10
688.017210
 20
548.736795
 30
0.000000
 40
48.420243
 50
-179.218004
 51
-162.499989
  6
CONTINUOUS
  0
ARC
  8
WHITE
 10
696.607085
 20
547.251110
 30
0.000000
 40
57.011575
 50
172.069313
 51
179.171012
  6
CONTINUOUS
  0
ARC
  8
WHITE
 10
622.476954
 20
558.473730
 30
0.000000
 40
17.979896
 50
-10.758964
 51
0.493789
  6
CONTINUOUS
  0
ARC
  8
WHITE
 10
637.264818
 20
557.774447
 30
0.000000
 40
3.303714
 50
14.985134
 51
75.905788
  6
CONTINUOUS
  0
LINE
  8
WHITE
 10
638.069328
 20
560.978708
 30
0.000000
 11
638.069265
 21
560.978420
 31
0.000000
  6
CONTINUOUS
  0
ARC
  8
WHITE
 10
637.556992
 20
558.033810
 30
0.000000
 40
2.988838
 50
80.131024
 51
163.879051
  6
CONTINUOUS
  0
ARC
  8
WHITE
 10
684.246163
 20
548.329789
 30
0.000000
 40
50.667590
 50
168.000538
 51
205.087567
  6
CONTINUOUS
  0
ARC
  8
WHITE
 10
680.558422
 20
546.591338
 30
0.000000
 40
46.590641
 50
-154.925757
 51
-134.758892
  6
CONTINUOUS
  0
ARC
  8
WHITE
 10
698.301847
 20
541.970373
 30
0.000000
 40
53.966661
 50
88.496844
 51
114.075445
  6
CONTINUOUS
  0
ARC
  8
WHITE
 10
694.505179
 20
549.882136
 30
0.000000
 40
45.194971
 50
113.772613
 51
167.215323
  6
CONTINUOUS
  0
ARC
  8
WHITE
 10
691.838509
 20
550.778995
 30
0.000000
 40
42.396902
 50
167.599835
 51
178.282739
  6
CONTINUOUS
  0
ARC
  8
WHITE
 10
664.099297
 20
550.958323
 30
0.000000
 40
14.679263
 50
175.736935
 51
190.159689
  6
CONTINUOUS
  0
ARC
  8
WHITE
 10
652.442152
 20
549.417024
 30
0.000000
 40
2.982161
 50
-159.425437
 51
-21.522303
  6
CONTINUOUS
  0
ARC
  8
WHITE
 10
641.262245
 20
550.988456
 30
0.000000
 40
14.206431
 50
-10.814199
 51
2.738453
  6
CONTINUOUS
  0
ARC
  8
WHITE
 10
693.711790
 20
550.338328
 30
0.000000
 40
38.282408
 50
138.990052
 51
178.010738
  6
CONTINUOUS
  0
ARC
  8
WHITE
 10
694.579457
 20
549.961867
 30
0.000000
 40
39.185214
 50
110.808890
 51
139.407184
  6
CONTINUOUS
  0
ARC
  8
WHITE
 10
698.888538
 20
537.813664
 30
0.000000
 40
52.072601
 50
45.971874
 51
110.492362
  6
CONTINUOUS
  0
LINE
  8
WHITE
 10
735.079590
 20
575.253797
 30
0.000000
 11
735.079590
 21
575.251997
 31
0.000000
  6
CONTINUOUS
  0
ARC
  8
WHITE
 10
696.468644
 20
538.141522
 30
0.000000
 40
53.553642
 50
39.458735
 51
43.864794
  6
CONTINUOUS
  0
ARC
  8
WHITE
 10
742.781662
 20
575.044246
 30
0.000000
 40
5.734074
 50
-149.986705
 51
-111.612288
  6
CONTINUOUS
  0
ARC
  8
WHITE
 10
741.330546
 20
572.618932
 30
0.000000
 40
2.979851
 50
-102.813786
 51
36.197696
  6
CONTINUOUS
  0
ARC
  8
WHITE
 10
702.459169
 20
543.090813
 30
0.000000
 40
51.794296
 50
37.162726
 51
65.195453
  6
CONTINUOUS
  0
ARC
  8
WHITE
 10
698.134828
 20
534.832159
 30
0.000000
 40
61.106943
 50
64.763491
 51
88.515710
  6
CONTINUOUS
  0
LINE
  8
WHITE
 10
699.717672
 20
595.918598
 30
0.000000
 11
699.717501
 21
595.918463
 31
0.000000
  6
CONTINUOUS
  0
ARC
  8
WHITE
 10
541.801023
 20
697.049710
 30
0.000000
 40
353.737563
 50
-147.376132
 51
-140.748792
  6
CONTINUOUS
  0
ARC
  8
WHITE
 10
566.455088
 20
717.860409
 30
0.000000
 40
385.996885
 50
-140.672168
 51
-138.394615
  6
CONTINUOUS
  0
ARC
  8
WHITE
 10
280.654642
 20
462.931013
 30
0.000000
 40
3.138566
 50
-154.094862
 51
-30.954869
  6
CONTINUOUS
  0
ARC
  8
WHITE
 10
280.768933
 20
462.742229
 30
0.000000
 40
2.945255
 50
-28.948621
 51
32.262900
  6
CONTINUOUS
  0
ARC
  8
WHITE
 10
228.550519
 20
422.410841
 30
0.000000
 40
68.912833
 50
37.449823
 51
42.511019
  6
CONTINUOUS
  0
ARC
  8
WHITE
 10
544.589416
 20
699.508029
 30
0.000000
 40
351.420827
 50
-153.914760
 51
-139.004801
  6
CONTINUOUS
  0
ARC
  8
WHITE
 10
506.222440
 20
682.939065
 30
0.000000
 40
309.682761
 50
-155.742657
 51
-153.546764
  6
CONTINUOUS
  0
ARC
  8
WHITE
 10
-422.004943
 20
274.009041
 30
0.000000
 40
704.645475
 50
23.564259
 51
24.407987
  6
CONTINUOUS
  0
ARC
  8
WHITE
 10
217.036989
 20
563.719535
 30
0.000000
 40
3.010523
 50
29.252561
 51
202.791836
  6
CONTINUOUS
  0
ARC
  8
WHITE
 10
567.388458
 20
712.673999
 30
0.000000
 40
383.711933
 50
-156.968771
 51
-147.471029
  6
CONTINUOUS
  0
ARC
  8
WHITE
 10
600.842508
 20
806.983000
 30
0.000000
 40
3.103826
 50
100.577076
 51
155.450865
  6
CONTINUOUS
  0
ARC
  8
WHITE
 10
603.001160
 20
806.577201
 30
0.000000
 40
5.262475
 50
161.206433
 51
193.067484
  6
CONTINUOUS
  0
LINE
  8
WHITE
 10
597.874960
 20
805.387363
 30
0.000000
 11
598.805643
 21
793.830940
 31
0.000000
  6
CONTINUOUS
  0
ARC
  8
WHITE
 10
516.422477
 20
788.886125
 30
0.000000
 40
82.531432
 50
-26.741842
 51
3.434895
  6
CONTINUOUS
  0
ARC
  8
WHITE
 10
533.547358
 20
779.500495
 30
0.000000
 40
63.018539
 50
-55.764695
 51
-26.127158
  6
CONTINUOUS
  0
ARC
  8
WHITE
 10
541.615851
 20
769.417129
 30
0.000000
 40
50.152924
 50
-84.840010
 51
-56.904528
  6
CONTINUOUS
  0
ARC
  8
WHITE
 10
546.743835
 20
707.649944
 30
0.000000
 40
11.833625
 50
92.990544
 51
104.082844
  6
CONTINUOUS
  0
ARC
  8
WHITE
 10
544.767113
 20
716.293222
 30
0.000000
 40
2.974944
 50
107.663791
 51
277.272417
  6
CONTINUOUS
  0
ARC
  8
WHITE
 10
541.405209
 20
769.706323
 30
0.000000
 40
56.487960
 50
-86.205269
 51
-54.667522
  6
CONTINUOUS
  0
ARC
  8
WHITE
 10
532.918791
 20
780.130209
 30
0.000000
 40
69.905465
 50
-53.933976
 51
-28.452753
  6
CONTINUOUS
  0
ARC
  8
WHITE
 10
516.440735
 20
788.801897
 30
0.000000
 40
88.524917
 50
-28.306177
 51
6.754370
  6
CONTINUOUS
  0
ARC
  8
WHITE
 10
531.291517
 20
797.102078
 30
0.000000
 40
73.090233
 50
1.655455
 51
6.682371
  6
CONTINUOUS
  0
ARC
  8
WHITE
 10
597.185110
 20
805.679471
 30
0.000000
 40
6.700491
 50
-0.617704
 51
27.398874
  6
CONTINUOUS
  0
ARC
  8
WHITE
 10
600.559853
 20
806.824818
 30
0.000000
 40
3.222159
 50
36.976771
 51
95.115711
  6
CONTINUOUS
  0
LINE
  8
WHITE
 10
600.272541
 20
810.034142
 30
0.000000
 11
600.272775
 21
810.034088
 31
0.000000
  6
CONTINUOUS
  0
ARC
  8
WHITE
 10
418.772060
 20
1060.623027
 30
0.000000
 40
2.990703
 50
111.887898
 51
207.816684
  6
CONTINUOUS
  0
ARC
  8
WHITE
 10
419.326130
 20
1061.107492
 30
0.000000
 40
3.710713
 50
-149.558581
 51
-112.217687
  6
CONTINUOUS
  0
ARC
  8
WHITE
 10
304.639153
 20
809.733112
 30
0.000000
 40
272.593224
 50
63.430771
 51
65.444253
  6
CONTINUOUS
  0
ARC
  8
WHITE
 10
415.194033
 20
1026.171571
 30
0.000000
 40
29.635460
 50
50.066670
 51
67.438684
  6
CONTINUOUS
  0
ARC
  8
WHITE
 10
270.454877
 20
818.324013
 30
0.000000
 40
282.809747
 50
47.792673
 51
54.615987
  6
CONTINUOUS
  0
ARC
  8
WHITE
 10
352.307660
 20
909.568527
 30
0.000000
 40
160.234676
 50
38.522370
 51
47.553249
  6
CONTINUOUS
  0
ARC
  8
WHITE
 10
404.050625
 20
950.302134
 30
0.000000
 40
94.383757
 50
15.742096
 51
38.739701
  6
CONTINUOUS
  0
ARC
  8
WHITE
 10
504.031782
 20
977.957848
 30
0.000000
 40
9.364330
 50
-167.362944
 51
-152.879207
  6
CONTINUOUS
  0
ARC
  8
WHITE
 10
498.208089
 20
975.317503
 30
0.000000
 40
2.992879
 50
-147.033909
 51
21.671554
  6
CONTINUOUS
  0
ARC
  8
WHITE
 10
410.683919
 20
953.023833
 30
0.000000
 40
93.287683
 50
14.526346
 51
30.891087
  6
CONTINUOUS
  0
ARC
  8
WHITE
 10
379.492249
 20
933.613543
 30
0.000000
 40
130.021635
 50
31.174344
 51
44.786604
  6
CONTINUOUS
  0
LINE
  8
WHITE
 10
471.773214
 20
1025.209661
 30
0.000000
 11
471.773214
 21
1025.211461
 31
0.000000
  6
CONTINUOUS
  0
ARC
  8
WHITE
 10
303.302431
 20
857.390784
 30
0.000000
 40
237.794417
 50
44.889238
 51
52.970392
  6
CONTINUOUS
  0
ARC
  8
WHITE
 10
273.435454
 20
822.499273
 30
0.000000
 40
283.650007
 50
52.398555
 51
54.092196
  6
CONTINUOUS
  0
LINE
  8
WHITE
 10
439.791273
 20
1052.244933
 30
0.000000
 11
434.725096
 21
1055.970664
 31
0.000000
  6
CONTINUOUS
  0
ARC
  8
WHITE
 10
366.991135
 20
936.791842
 30
0.000000
 40
137.082022
 50
60.388746
 51
64.328134
  6
CONTINUOUS
  0
LINE
  8
WHITE
 10
426.377340
 20
1060.342478
 30
0.000000
 11
419.968201
 21
1063.338293
 31
0.000000
  6
CONTINUOUS
  0
ARC
  8
WHITE
 10
418.740514
 20
1060.581891
 30
0.000000
 40
3.017444
 50
65.992045
 51
111.040844
  6
CONTINUOUS
  0
ARC
  8
WHITE
 10
695.904720
 20
554.712929
 30
0.000000
 40
57.389782
 50
89.910405
 51
114.214942
  6
CONTINUOUS
  0
ARC
  8
WHITE
 10
701.049324
 20
545.858006
 30
0.000000
 40
67.584017
 50
115.113619
 51
151.227063
  6
CONTINUOUS
  0
ARC
  8
WHITE
 10
693.535493
 20
550.181272
 30
0.000000
 40
58.917182
 50
151.395093
 51
155.279183
  6
CONTINUOUS
  0
ARC
  8
WHITE
 10
643.503186
 20
572.227435
 30
0.000000
 40
4.344122
 50
143.354647
 51
194.263311
  6
CONTINUOUS
  0
ARC
  8
WHITE
 10
642.079502
 20
572.375508
 30
0.000000
 40
3.041241
 50
-156.383280
 51
-15.213053
  6
CONTINUOUS
  0
ARC
  8
WHITE
 10
704.176464
 20
543.169448
 30
0.000000
 40
65.629204
 50
129.809254
 51
154.351038
  6
CONTINUOUS
  0
ARC
  8
WHITE
 10
695.965780
 20
554.020703
 30
0.000000
 40
52.040663
 50
84.084171
 51
130.513961
  6
CONTINUOUS
  0
ARC
  8
WHITE
 10
694.215346
 20
528.003746
 30
0.000000
 40
78.105138
 50
53.839580
 51
84.774030
  6
CONTINUOUS
  0
ARC
  8
WHITE
 10
743.757792
 20
594.441380
 30
0.000000
 40
4.833179
 50
-135.659078
 51
-88.687908
  6
CONTINUOUS
  0
ARC
  8
WHITE
 10
743.277130
 20
592.590725
 30
0.000000
 40
3.039336
 50
-78.780962
 51
61.774573
  6
CONTINUOUS
  0
ARC
  8
WHITE
 10
694.113369
 20
527.739783
 30
0.000000
 40
84.383827
 50
53.154802
 51
88.722650
  6
CONTINUOUS
  0
ARC
  8
WHITE
 10
754.417751
 20
582.344092
 30
0.000000
 40
3.059819
 50
133.325239
 51
206.032130
  6
CONTINUOUS
  0
ARC
  8
WHITE
 10
774.388913
 20
596.352192
 30
0.000000
 40
27.420362
 50
-145.955360
 51
-137.917286
  6
CONTINUOUS
  0
ARC
  8
WHITE
 10
700.016382
 20
534.148692
 30
0.000000
 40
69.563588
 50
14.064893
 51
39.051436
  6
CONTINUOUS
  0
ARC
  8
WHITE
 10
696.181932
 20
533.563066
 30
0.000000
 40
73.426306
 50
-6.932260
 51
13.781027
  6
CONTINUOUS
  0
ARC
  8
WHITE
 10
616.771419
 20
537.325712
 30
0.000000
 40
152.822412
 50
-22.158495
 51
-4.738692
  6
CONTINUOUS
  0
ARC
  8
WHITE
 10
633.780646
 20
528.757904
 30
0.000000
 40
133.846525
 50
-25.237484
 51
-21.507961
  6
CONTINUOUS
  0
ARC
  8
WHITE
 10
758.182337
 20
469.341890
 30
0.000000
 40
4.075245
 50
144.823856
 51
201.780058
  6
CONTINUOUS
  0
ARC
  8
WHITE
 10
756.946275
 20
469.032552
 30
0.000000
 40
2.817857
 50
-154.733137
 51
-74.256917
  6
CONTINUOUS
  0
ARC
  8
WHITE
 10
756.512406
 20
469.949910
 30
0.000000
 40
3.822247
 50
-71.727387
 51
-14.700078
  6
CONTINUOUS
  0
ARC
  8
WHITE
 10
613.517035
 20
537.981572
 30
0.000000
 40
162.110798
 50
-25.191474
 51
-4.197968
  6
CONTINUOUS
  0
ARC
  8
WHITE
 10
700.382605
 20
534.204053
 30
0.000000
 40
75.246393
 50
-6.171575
 51
39.071323
  6
CONTINUOUS
  0
LINE
  8
WHITE
 10
758.801043
 20
581.630900
 30
0.000000
 11
758.801043
 21
581.632700
 31
0.000000
  6
CONTINUOUS
  0
ARC
  8
WHITE
 10
733.670455
 20
561.808693
 30
0.000000
 40
32.008401
 50
38.267781
 51
45.566032
  6
CONTINUOUS
  0
ARC
  8
WHITE
 10
754.258157
 20
582.251617
 30
0.000000
 40
3.022926
 50
52.959294
 51
129.920079
  6
CONTINUOUS
  0
ARC
  8
WHITE
 10
200.669393
 20
828.579043
 30
0.000000
 40
3.126068
 50
77.763364
 51
146.676318
  6
CONTINUOUS
  0
ARC
  8
WHITE
 10
214.717884
 20
823.326530
 30
0.000000
 40
18.059729
 50
157.298225
 51
168.926008
  6
CONTINUOUS
  0
ARC
  8
WHITE
 10
599.890436
 20
725.114886
 30
0.000000
 40
415.528719
 50
165.835807
 51
181.527650
  6
CONTINUOUS
  0
ARC
  8
WHITE
 10
469.368118
 20
711.685108
 30
0.000000
 40
284.868422
 50
179.526925
 51
180.384878
  6
CONTINUOUS
  0
ARC
  8
WHITE
 10
187.485966
 20
709.892678
 30
0.000000
 40
2.982304
 50
-177.672325
 51
-19.113811
  6
CONTINUOUS
  0
ARC
  8
WHITE
 10
125.107864
 20
714.213387
 30
0.000000
 40
65.410841
 50
-4.645146
 51
2.180128
  6
CONTINUOUS
  0
ARC
  8
WHITE
 10
609.325805
 20
724.695314
 30
0.000000
 40
418.930716
 50
173.088637
 51
181.093327
  6
CONTINUOUS
  0
ARC
  8
WHITE
 10
558.436472
 20
732.152608
 30
0.000000
 40
367.516034
 50
168.725710
 51
173.288096
  6
CONTINUOUS
  0
ARC
  8
WHITE
 10
633.698407
 20
718.544045
 30
0.000000
 40
443.988265
 50
167.014028
 51
168.902276
  6
CONTINUOUS
  0
LINE
  8
WHITE
 10
201.065092
 20
818.313755
 30
0.000000
 11
202.832726
 21
825.413255
 31
0.000000
  6
CONTINUOUS
  0
ARC
  8
WHITE
 10
185.795015
 20
830.600064
 30
0.000000
 40
17.809733
 50
-16.931879
 51
-5.182426
  6
CONTINUOUS
  0
ARC
  8
WHITE
 10
200.353010
 20
828.582073
 30
0.000000
 40
3.205174
 50
7.336486
 51
72.216036
  6
CONTINUOUS
  0
ARC
  8
WHITE
 10
622.445207
 20
961.992376
 30
0.000000
 40
3.286029
 50
132.073603
 51
192.251558
  6
CONTINUOUS
  0
ARC
  8
WHITE
 10
719.668825
 20
1027.362453
 30
0.000000
 40
120.216681
 50
-146.662536
 51
-141.728771
  6
CONTINUOUS
  0
LINE
  8
WHITE
 10
625.288212
 20
952.902059
 30
0.000000
 11
625.286412
 21
952.902059
 31
0.000000
  6
CONTINUOUS
  0
ARC
  8
WHITE
 10
440.321044
 20
824.908347
 30
0.000000
 40
224.932385
 50
19.091430
 51
34.682748
  6
CONTINUOUS
  0
ARC
  8
WHITE
 10
354.525839
 20
791.751881
 30
0.000000
 40
316.870257
 50
15.532321
 51
19.682930
  6
CONTINUOUS
  0
ARC
  8
WHITE
 10
473.305577
 20
821.860446
 30
0.000000
 40
194.386019
 50
10.436526
 51
16.357092
  6
CONTINUOUS
  0
LINE
  8
WHITE
 10
664.475711
 20
857.072720
 30
0.000000
 11
665.217735
 21
852.741818
 31
0.000000
  6
CONTINUOUS
  0
ARC
  8
WHITE
 10
668.240365
 20
852.654102
 30
0.000000
 40
3.023902
 50
178.337748
 51
339.869383
  6
CONTINUOUS
  0
ARC
  8
WHITE
 10
661.804483
 20
852.982922
 30
0.000000
 40
9.375621
 50
-8.399453
 51
15.830137
  6
CONTINUOUS
  0
ARC
  8
WHITE
 10
429.516576
 20
812.154187
 30
0.000000
 40
245.177278
 50
10.192668
 51
17.419016
  6
CONTINUOUS
  0
ARC
  8
WHITE
 10
407.047022
 20
810.404999
 30
0.000000
 40
267.187903
 50
16.334430
 51
26.282062
  6
CONTINUOUS
  0
ARC
  8
WHITE
 10
465.459907
 20
839.749171
 30
0.000000
 40
201.820616
 50
26.155431
 51
32.740383
  6
CONTINUOUS
  0
ARC
  8
WHITE
 10
498.958130
 20
861.745893
 30
0.000000
 40
161.748162
 50
32.603953
 51
36.711771
  6
CONTINUOUS
  0
LINE
  8
WHITE
 10
628.624004
 20
958.437303
 30
0.000000
 11
625.131599
 21
963.066617
 31
0.000000
  6
CONTINUOUS
  0
ARC
  8
WHITE
 10
622.118657
 20
961.712045
 30
0.000000
 40
3.303435
 50
24.207933
 51
124.590157
  6
CONTINUOUS
  0
ARC
  8
WHITE
 10
360.087412
 20
828.296815
 30
0.000000
 40
92.785271
 50
89.296834
 51
118.931750
  6
CONTINUOUS
  0
ARC
  8
WHITE
 10
315.813956
 20
906.520000
 30
0.000000
 40
3.044525
 50
101.616345
 51
271.781093
  6
CONTINUOUS
  0
ARC
  8
WHITE
 10
313.197409
 20
915.098550
 30
0.000000
 40
11.933657
 50
-76.868473
 51
-56.616759
  6
CONTINUOUS
  0
ARC
  8
WHITE
 10
359.993679
 20
828.488947
 30
0.000000
 40
86.561467
 50
96.057131
 51
117.694413
  6
CONTINUOUS
  0
ARC
  8
WHITE
 10
359.343626
 20
838.225716
 30
0.000000
 40
76.811408
 50
78.053498
 51
96.341332
  6
CONTINUOUS
  0
ARC
  8
WHITE
 10
361.566238
 20
850.498527
 30
0.000000
 40
64.345373
 50
61.354453
 51
77.727614
  6
CONTINUOUS
  0
ARC
  8
WHITE
 10
376.844058
 20
874.177718
 30
0.000000
 40
36.298726
 50
21.026583
 51
64.601943
  6
CONTINUOUS
  0
ARC
  8
WHITE
 10
372.060581
 20
871.083164
 30
0.000000
 40
41.890423
 50
13.199000
 51
22.630050
  6
CONTINUOUS
  0
ARC
  8
WHITE
 10
422.188639
 20
882.755544
 30
0.000000
 40
9.578946
 50
-167.290910
 51
-151.849242
  6
CONTINUOUS
  0
ARC
  8
WHITE
 10
416.176549
 20
880.041850
 30
0.000000
 40
3.030398
 50
-143.428525
 51
28.047477
  6
CONTINUOUS
  0
ARC
  8
WHITE
 10
368.265273
 20
869.724868
 30
0.000000
 40
51.930654
 50
13.067981
 51
23.053171
  6
CONTINUOUS
  0
LINE
  8
WHITE
 10
416.048841
 20
890.060144
 30
0.000000
 11
416.048841
 21
890.056544
 31
0.000000
  6
CONTINUOUS
  0
ARC
  8
WHITE
 10
367.162912
 20
868.237952
 30
0.000000
 40
53.533962
 50
24.051991
 51
37.999394
  6
CONTINUOUS
  0
ARC
  8
WHITE
 10
387.311976
 20
885.091433
 30
0.000000
 40
27.294314
 50
36.160193
 51
56.685096
  6
CONTINUOUS
  0
ARC
  8
WHITE
 10
360.496144
 20
847.964176
 30
0.000000
 40
73.076427
 50
55.103259
 51
78.093100
  6
CONTINUOUS
  0
LINE
  8
WHITE
 10
375.573420
 20
919.468301
 30
0.000000
 11
375.575220
 21
919.466501
 31
0.000000
  6
CONTINUOUS
  0
ARC
  8
WHITE
 10
359.605648
 20
841.807255
 30
0.000000
 40
79.284208
 50
78.379883
 51
88.828808
  6
CONTINUOUS
  0
LINE
  8
WHITE
 10
361.226196
 20
921.074900
 30
0.000000
 11
361.226097
 21
921.075098
 31
0.000000
  6
CONTINUOUS
  0
ARC
  8
WHITE
 10
291.119901
 20
451.887001
 30
0.000000
 40
3.023745
 50
136.046619
 51
212.116763
  6
CONTINUOUS
  0
ARC
  8
WHITE
 10
375.511949
 20
529.420320
 30
0.000000
 40
117.575992
 50
-137.692904
 51
-133.820263
  6
CONTINUOUS
  0
ARC
  8
WHITE
 10
640.476080
 20
806.232180
 30
0.000000
 40
500.760986
 50
-133.764383
 51
-130.235887
  6
CONTINUOUS
  0
ARC
  8
WHITE
 10
511.612364
 20
644.108025
 30
0.000000
 40
293.827648
 50
-131.473897
 51
-120.950103
  6
CONTINUOUS
  0
ARC
  8
WHITE
 10
526.699038
 20
666.391025
 30
0.000000
 40
320.700250
 50
-121.214270
 51
-117.598818
  6
CONTINUOUS
  0
ARC
  8
WHITE
 10
579.087533
 20
771.760817
 30
0.000000
 40
438.357274
 50
-117.286677
 51
-116.129970
  6
CONTINUOUS
  0
ARC
  8
WHITE
 10
387.134846
 20
380.952333
 30
0.000000
 40
2.960915
 50
-111.886360
 51
47.336773
  6
CONTINUOUS
  0
ARC
  8
WHITE
 10
339.924664
 20
299.352015
 30
0.000000
 40
97.164706
 50
59.567085
 51
64.149789
  6
CONTINUOUS
  0
ARC
  8
WHITE
 10
524.023610
 20
662.147692
 30
0.000000
 40
309.689980
 50
-128.033878
 51
-117.236315
  6
CONTINUOUS
  0
ARC
  8
WHITE
 10
729.762902
 20
906.042234
 30
0.000000
 40
628.664652
 50
-131.767064
 51
-129.107535
  6
CONTINUOUS
  0
ARC
  8
WHITE
 10
528.608987
 20
685.326692
 30
0.000000
 40
330.066332
 50
-133.776895
 51
-131.244035
  6
CONTINUOUS
  0
ARC
  8
WHITE
 10
487.316290
 20
643.211982
 30
0.000000
 40
271.090267
 50
-135.175571
 51
-133.633640
  6
CONTINUOUS
  0
ARC
  8
WHITE
 10
282.363662
 20
440.635375
 30
0.000000
 40
17.098803
 50
42.152602
 51
54.355395
  6
CONTINUOUS
  0
ARC
  8
WHITE
 10
291.063401
 20
451.600911
 30
0.000000
 40
3.191070
 50
66.651630
 51
131.640199
  6
CONTINUOUS
  0
ARC
  8
WHITE
 10
526.898090
 20
851.127565
 30
0.000000
 40
2.954903
 50
84.536736
 51
232.538319
  6
CONTINUOUS
  0
ARC
  8
WHITE
 10
528.289949
 20
853.842765
 30
0.000000
 40
5.981725
 50
-122.218140
 51
-87.855159
  6
CONTINUOUS
  0
ARC
  8
WHITE
 10
514.797364
 20
758.711039
 30
0.000000
 40
90.203166
 50
72.426006
 51
81.253570
  6
CONTINUOUS
  0
ARC
  8
WHITE
 10
528.648777
 20
790.249757
 30
0.000000
 40
56.075200
 50
26.486471
 51
76.191091
  6
CONTINUOUS
  0
ARC
  8
WHITE
 10
533.724289
 20
792.134908
 30
0.000000
 40
50.694940
 50
-0.355642
 51
27.137851
  6
CONTINUOUS
  0
ARC
  8
WHITE
 10
535.565316
 20
792.371246
 30
0.000000
 40
48.856043
 50
-7.777606
 51
-0.646204
  6
CONTINUOUS
  0
ARC
  8
WHITE
 10
778.789163
 20
753.536688
 30
0.000000
 40
197.464112
 50
170.608254
 51
173.254220
  6
CONTINUOUS
  0
ARC
  8
WHITE
 10
542.411362
 20
782.377573
 30
0.000000
 40
40.674464
 50
-20.827224
 51
-7.978830
  6
CONTINUOUS
  0
ARC
  8
WHITE
 10
584.882353
 20
765.629548
 30
0.000000
 40
5.006755
 50
152.830922
 51
191.175836
  6
CONTINUOUS
  0
ARC
  8
WHITE
 10
582.772804
 20
765.628843
 30
0.000000
 40
2.965302
 50
-160.912112
 51
-36.146394
  6
CONTINUOUS
  0
ARC
  8
WHITE
 10
555.460375
 20
778.135662
 30
0.000000
 40
32.950470
 50
-25.635625
 51
-15.015307
  6
CONTINUOUS
  0
ARC
  8
WHITE
 10
529.825180
 20
785.262013
 30
0.000000
 40
59.557158
 50
-15.247679
 51
-4.205685
  6
CONTINUOUS
  0
ARC
  8
WHITE
 10
533.754150
 20
792.348397
 30
0.000000
 40
56.638110
 50
-11.667612
 51
28.986360
  6
CONTINUOUS
  0
ARC
  8
WHITE
 10
527.622855
 20
789.128173
 30
0.000000
 40
63.562081
 50
28.847190
 51
65.061190
  6
CONTINUOUS
  0
LINE
  8
WHITE
 10
554.423814
 20
846.763637
 30
0.000000
 11
554.427414
 21
846.763637
 31
0.000000
  6
CONTINUOUS
  0
ARC
  8
WHITE
 10
528.881079
 20
791.187946
 30
0.000000
 40
61.165944
 50
65.313298
 51
78.574161
  6
CONTINUOUS
  0
ARC
  8
WHITE
 10
521.465463
 20
793.017177
 30
0.000000
 40
61.318675
 50
71.425248
 51
84.653159
  6
CONTINUOUS
  0
ARC
  8
WHITE
 10
375.632338
 20
686.641291
 30
0.000000
 40
5.131781
 50
105.385392
 51
152.827357
  6
CONTINUOUS
  0
ARC
  8
WHITE
 10
410.204199
 20
656.446316
 30
0.000000
 40
50.896772
 50
140.260042
 51
158.260129
  6
CONTINUOUS
  0
ARC
  8
WHITE
 10
379.432082
 20
668.764217
 30
0.000000
 40
17.750907
 50
158.402171
 51
197.104010
  6
CONTINUOUS
  0
ARC
  8
WHITE
 10
377.648631
 20
669.249168
 30
0.000000
 40
16.219084
 50
-159.403502
 51
-127.646236
  6
CONTINUOUS
  0
ARC
  8
WHITE
 10
390.306429
 20
686.386857
 30
0.000000
 40
37.522478
 50
-126.966679
 51
-106.374021
  6
CONTINUOUS
  0
ARC
  8
WHITE
 10
402.458213
 20
719.129807
 30
0.000000
 40
72.403841
 50
-108.296128
 51
-97.633098
  6
CONTINUOUS
  0
ARC
  8
WHITE
 10
392.188369
 20
632.518872
 30
0.000000
 40
14.862997
 50
72.873157
 51
87.483783
  6
CONTINUOUS
  0
ARC
  8
WHITE
 10
377.483603
 20
619.401292
 30
0.000000
 40
33.325307
 50
45.190967
 51
55.068960
  6
CONTINUOUS
  0
ARC
  8
WHITE
 10
391.426305
 20
631.583788
 30
0.000000
 40
14.913567
 50
28.124611
 51
50.215710
  6
CONTINUOUS
  0
ARC
  8
WHITE
 10
402.761055
 20
653.317169
 30
0.000000
 40
14.815219
 50
-104.036583
 51
-82.951806
  6
CONTINUOUS
  0
ARC
  8
WHITE
 10
406.471919
 20
674.433178
 30
0.000000
 40
36.232721
 50
-118.349857
 51
-101.629974
  6
CONTINUOUS
  0
ARC
  8
WHITE
 10
413.423248
 20
685.372413
 30
0.000000
 40
49.169486
 50
-125.200036
 51
-119.425554
  6
CONTINUOUS
  0
ARC
  8
WHITE
 10
366.774888
 20
600.714703
 30
0.000000
 40
48.098679
 50
67.630311
 51
79.063713
  6
CONTINUOUS
  0
ARC
  8
WHITE
 10
373.413225
 20
632.420251
 30
0.000000
 40
15.717575
 50
80.896479
 51
97.304319
  6
CONTINUOUS
  0
ARC
  8
WHITE
 10
371.151148
 20
644.681463
 30
0.000000
 40
3.339246
 50
85.469719
 51
160.362044
  6
CONTINUOUS
  0
ARC
  8
WHITE
 10
370.865130
 20
644.928628
 30
0.000000
 40
2.989924
 50
162.981864
 51
242.886965
  6
CONTINUOUS
  0
ARC
  8
WHITE
 10
370.991744
 20
645.374047
 30
0.000000
 40
3.445283
 50
-115.611168
 51
-81.729210
  6
CONTINUOUS
  0
ARC
  8
WHITE
 10
373.410457
 20
631.415644
 30
0.000000
 40
10.722814
 50
78.772377
 51
100.331721
  6
CONTINUOUS
  0
ARC
  8
WHITE
 10
367.477301
 20
604.992235
 30
0.000000
 40
37.801769
 50
65.939802
 51
77.749575
  6
CONTINUOUS
  0
ARC
  8
WHITE
 10
406.228591
 20
672.959884
 30
0.000000
 40
40.787920
 50
-124.905157
 51
-104.342921
  6
CONTINUOUS
  0
ARC
  8
WHITE
 10
403.831015
 20
662.390379
 30
0.000000
 40
29.955380
 50
-104.908104
 51
-92.661535
  6
CONTINUOUS
  0
ARC
  8
WHITE
 10
403.216326
 20
643.389534
 30
0.000000
 40
10.949776
 50
-94.065550
 51
-62.719315
  6
CONTINUOUS
  0
ARC
  8
WHITE
 10
405.596591
 20
638.135266
 30
0.000000
 40
5.197190
 50
-59.489881
 51
2.438288
  6
CONTINUOUS
  0
ARC
  8
WHITE
 10
401.956444
 20
637.660993
 30
0.000000
 40
8.859962
 50
4.501519
 51
38.598186
  6
CONTINUOUS
  0
ARC
  8
WHITE
 10
378.246104
 20
619.780686
 30
0.000000
 40
38.553934
 50
37.382997
 51
52.081236
  6
CONTINUOUS
  0
ARC
  8
WHITE
 10
394.264752
 20
642.162230
 30
0.000000
 40
11.109716
 50
46.307722
 51
90.930245
  6
CONTINUOUS
  0
ARC
  8
WHITE
 10
403.598767
 20
724.334959
 30
0.000000
 40
71.698559
 50
-109.725381
 51
-97.625630
  6
CONTINUOUS
  0
ARC
  8
WHITE
 10
389.664199
 20
685.629914
 30
0.000000
 40
30.561642
 50
-120.279469
 51
-109.625127
  6
CONTINUOUS
  0
ARC
  8
WHITE
 10
380.649755
 20
671.852116
 30
0.000000
 40
14.143043
 50
-137.006753
 51
-116.884054
  6
CONTINUOUS
  0
ARC
  8
WHITE
 10
376.491579
 20
668.537084
 30
0.000000
 40
8.850588
 50
169.380435
 51
225.653479
  6
CONTINUOUS
  0
ARC
  8
WHITE
 10
397.768951
 20
663.305576
 30
0.000000
 40
30.751870
 50
142.811698
 51
167.105356
  6
CONTINUOUS
  0
ARC
  8
WHITE
 10
116.185106
 20
874.656964
 30
0.000000
 40
321.326516
 50
-36.862749
 51
-35.700475
  6
CONTINUOUS
  0
ARC
  8
WHITE
 10
374.538385
 20
688.621979
 30
0.000000
 40
2.979532
 50
-29.660331
 51
95.169815
  6
CONTINUOUS
  0
LINE
  8
WHITE
 10
374.269905
 20
691.589390
 30
0.000000
 11
374.270823
 21
691.589165
 31
0.000000
  6
CONTINUOUS
  0
ARC
  8
WHITE
 10
447.509024
 20
745.192895
 30
0.000000
 40
3.024956
 50
94.111979
 51
170.625985
  6
CONTINUOUS
  0
ARC
  8
WHITE
 10
559.884076
 20
747.594859
 30
0.000000
 40
115.375412
 50
-179.051811
 51
-175.102782
  6
CONTINUOUS
  0
ARC
  8
WHITE
 10
3599.518903
 20
952.366796
 30
0.000000
 40
3161.881470
 50
-176.107899
 51
-176.038077
  6
CONTINUOUS
  0
ARC
  8
WHITE
 10
454.206888
 20
734.872206
 30
0.000000
 40
9.065293
 50
-173.851863
 51
-149.878525
  6
CONTINUOUS
  0
ARC
  8
WHITE
 10
513.791115
 20
760.681694
 30
0.000000
 40
73.944817
 50
-155.759995
 51
-132.615654
  6
CONTINUOUS
  0
ARC
  8
WHITE
 10
549.071644
 20
800.374262
 30
0.000000
 40
127.045967
 50
-132.204552
 51
-120.417641
  6
CONTINUOUS
  0
ARC
  8
WHITE
 10
644.516685
 20
962.769522
 30
0.000000
 40
315.412559
 50
-120.433476
 51
-116.279251
  6
CONTINUOUS
  0
ARC
  8
WHITE
 10
-109.307774
 20
-562.711325
 30
0.000000
 40
1386.158242
 50
62.872433
 51
63.699545
  6
CONTINUOUS
  0
ARC
  8
WHITE
 10
57.897506
 20
-219.784509
 30
0.000000
 40
1004.742871
 50
61.942451
 51
62.441671
  6
CONTINUOUS
  0
ARC
  8
WHITE
 10
532.256466
 20
669.278258
 30
0.000000
 40
2.983425
 50
-126.388476
 51
31.231459
  6
CONTINUOUS
  0
ARC
  8
WHITE
 10
529.017443
 20
665.905113
 30
0.000000
 40
7.598154
 50
40.355711
 51
69.255868
  6
CONTINUOUS
  0
ARC
  8
WHITE
 10
110.931498
 20
-120.885443
 30
0.000000
 40
898.512382
 50
62.075722
 51
63.976998
  6
CONTINUOUS
  0
ARC
  8
WHITE
 10
632.798833
 20
940.807213
 30
0.000000
 40
284.521161
 50
-121.162644
 51
-116.659545
  6
CONTINUOUS
  0
ARC
  8
WHITE
 10
558.212244
 20
814.000345
 30
0.000000
 40
137.427749
 50
-128.903195
 51
-121.910934
  6
CONTINUOUS
  0
ARC
  8
WHITE
 10
518.266401
 20
764.336611
 30
0.000000
 40
73.692853
 50
-148.542364
 51
-128.983250
  6
CONTINUOUS
  0
ARC
  8
WHITE
 10
516.726518
 20
761.887020
 30
0.000000
 40
71.112557
 50
-154.645690
 51
-149.578517
  6
CONTINUOUS
  0
ARC
  8
WHITE
 10
459.964690
 20
736.228768
 30
0.000000
 40
8.901629
 50
-177.653525
 51
-147.421025
  6
CONTINUOUS
  0
ARC
  8
WHITE
 10
1727.715149
 20
825.101292
 30
0.000000
 40
1279.759640
 50
-176.318314
 51
-176.001550
  6
CONTINUOUS
  0
ARC
  8
WHITE
 10
433.912132
 20
742.492651
 30
0.000000
 40
16.690119
 50
1.479788
 51
13.614251
  6
CONTINUOUS
  0
ARC
  8
WHITE
 10
447.276309
 20
745.034481
 30
0.000000
 40
3.175766
 50
25.891464
 51
89.717401
  6
CONTINUOUS
  0
LINE
  8
WHITE
 10
447.291972
 20
748.210208
 30
0.000000
 11
447.292116
 21
748.210064
 31
0.000000
  6
CONTINUOUS
  0
ARC
  8
WHITE
 10
380.930694
 20
879.509481
 30
0.000000
 40
3.138327
 50
78.292640
 51
222.364678
  6
CONTINUOUS
  0
ARC
  8
WHITE
 10
367.391703
 20
872.358557
 30
0.000000
 40
12.298590
 50
-7.887565
 51
24.172916
  6
CONTINUOUS
  0
ARC
  8
WHITE
 10
352.097141
 20
874.768265
 30
0.000000
 40
27.780630
 50
-33.321835
 51
-8.481647
  6
CONTINUOUS
  0
ARC
  8
WHITE
 10
350.120612
 20
873.587649
 30
0.000000
 40
28.858155
 50
-47.114340
 51
-29.203872
  6
CONTINUOUS
  0
ARC
  8
WHITE
 10
495.893158
 20
718.127182
 30
0.000000
 40
184.256257
 50
133.200598
 51
141.627088
  6
CONTINUOUS
  0
LINE
  8
WHITE
 10
351.438642
 20
832.509266
 30
0.000000
 11
351.440442
 21
832.509266
 31
0.000000
  6
CONTINUOUS
  0
ARC
  8
WHITE
 10
502.811694
 20
713.647867
 30
0.000000
 40
192.461134
 50
141.859898
 51
156.427037
  6
CONTINUOUS
  0
ARC
  8
WHITE
 10
439.129064
 20
739.401626
 30
0.000000
 40
123.807385
 50
155.564800
 51
159.811091
  6
CONTINUOUS
  0
ARC
  8
WHITE
 10
342.499186
 20
773.407481
 30
0.000000
 40
21.426388
 50
155.978856
 51
167.451253
  6
CONTINUOUS
  0
ARC
  8
WHITE
 10
324.575458
 20
778.065074
 30
0.000000
 40
2.990817
 50
-179.956345
 51
-21.578804
  6
CONTINUOUS
  0
ARC
  8
WHITE
 10
503.453277
 20
712.894449
 30
0.000000
 40
187.390154
 50
140.898909
 51
160.006685
  6
CONTINUOUS
  0
ARC
  8
WHITE
 10
496.546855
 20
717.978029
 30
0.000000
 40
178.824838
 50
135.761891
 51
140.767294
  6
CONTINUOUS
  0
LINE
  8
WHITE
 10
368.428383
 20
842.733709
 30
0.000000
 11
376.736592
 21
850.983986
 31
0.000000
  6
CONTINUOUS
  0
ARC
  8
WHITE
 10
340.825405
 20
879.841641
 30
0.000000
 40
46.069270
 50
-38.784802
 51
-16.929676
  6
CONTINUOUS
  0
ARC
  8
WHITE
 10
363.026492
 20
872.231716
 30
0.000000
 40
22.629010
 50
-14.865106
 51
7.363661
  6
CONTINUOUS
  0
ARC
  8
WHITE
 10
368.391058
 20
872.589194
 30
0.000000
 40
17.266083
 50
8.468853
 51
23.030871
  6
CONTINUOUS
  0
ARC
  8
WHITE
 10
379.743975
 20
878.298828
 30
0.000000
 40
4.655825
 50
12.974637
 51
66.940256
  6
CONTINUOUS
  0
LINE
  8
WHITE
 10
381.567618
 20
882.582638
 30
0.000000
 11
381.567501
 21
882.582521
 31
0.000000
  6
CONTINUOUS
  0
ARC
  8
WHITE
 10
524.763939
 20
783.614701
 30
0.000000
 40
71.048079
 50
100.798840
 51
126.854520
  6
CONTINUOUS
  0
ARC
  8
WHITE
 10
534.591809
 20
770.137201
 30
0.000000
 40
87.727136
 50
126.711013
 51
163.644101
  6
CONTINUOUS
  0
ARC
  8
WHITE
 10
553.317234
 20
759.559585
 30
0.000000
 40
108.782803
 50
161.074838
 51
172.243277
  6
CONTINUOUS
  0
ARC
  8
WHITE
 10
579.024101
 20
755.973023
 30
0.000000
 40
134.738548
 50
172.207489
 51
176.152184
  6
CONTINUOUS
  0
ARC
  8
WHITE
 10
774.232045
 20
744.693915
 30
0.000000
 40
330.268519
 50
176.472444
 51
177.226801
  6
CONTINUOUS
  0
ARC
  8
WHITE
 10
447.315657
 20
760.270881
 30
0.000000
 40
2.992507
 50
172.274565
 51
333.502531
  6
CONTINUOUS
  0
ARC
  8
WHITE
 10
434.680666
 20
762.643255
 30
0.000000
 40
15.755573
 50
-13.610129
 51
0.687010
  6
CONTINUOUS
  0
ARC
  8
WHITE
 10
563.638782
 20
757.132895
 30
0.000000
 40
113.347051
 50
161.646754
 51
177.117859
  6
CONTINUOUS
  0
ARC
  8
WHITE
 10
534.760620
 20
769.966269
 30
0.000000
 40
81.955104
 50
131.705970
 51
163.805830
  6
CONTINUOUS
  0
ARC
  8
WHITE
 10
526.906415
 20
779.831347
 30
0.000000
 40
69.368205
 50
113.325210
 51
132.283836
  6
CONTINUOUS
  0
ARC
  8
WHITE
 10
522.107227
 20
791.368531
 30
0.000000
 40
56.873921
 50
101.925689
 51
113.487587
  6
CONTINUOUS
  0
ARC
  8
WHITE
 10
506.414904
 20
867.525259
 30
0.000000
 40
20.885303
 50
-79.126774
 51
-71.255836
  6
CONTINUOUS
  0
ARC
  8
WHITE
 10
511.940672
 20
850.472970
 30
0.000000
 40
2.972028
 50
-66.489803
 51
99.458473
  6
CONTINUOUS
  0
ARC
  8
WHITE
 10
550.097223
 20
618.970568
 30
0.000000
 40
236.996123
 50
-64.840548
 51
-49.475501
  6
CONTINUOUS
  0
ARC
  8
WHITE
 10
545.552977
 20
627.546835
 30
0.000000
 40
246.691122
 50
-75.802977
 51
-64.732079
  6
CONTINUOUS
  0
ARC
  8
WHITE
 10
608.291345
 20
375.755523
 30
0.000000
 40
12.830876
 50
100.034386
 51
119.988023
  6
CONTINUOUS
  0
ARC
  8
WHITE
 10
603.963867
 20
384.664435
 30
0.000000
 40
3.034599
 50
133.415642
 51
298.163143
  6
CONTINUOUS
  0
ARC
  8
WHITE
 10
544.268017
 20
630.236362
 30
0.000000
 40
255.662563
 50
-76.166754
 51
-61.614058
  6
CONTINUOUS
  0
ARC
  8
WHITE
 10
549.667530
 20
619.678068
 30
0.000000
 40
243.806917
 50
-61.550795
 51
-53.920618
  6
CONTINUOUS
  0
ARC
  8
WHITE
 10
553.706254
 20
614.017645
 30
0.000000
 40
236.853736
 50
-53.903842
 51
-49.976756
  6
CONTINUOUS
  0
ARC
  8
WHITE
 10
-857.066537
 20
2321.552363
 30
0.000000
 40
2451.785832
 50
-50.391934
 51
-50.297091
  6
CONTINUOUS
  0
ARC
  8
WHITE
 10
675.012401
 20
477.588215
 30
0.000000
 40
54.403671
 50
-51.133502
 51
-47.927806
  6
CONTINUOUS
  0
ARC
  8
WHITE
 10
709.401290
 20
439.355617
 30
0.000000
 40
2.982133
 50
-46.170113
 51
129.276984
  6
CONTINUOUS
  0
LINE
  8
WHITE
 10
707.513391
 20
441.664070
 30
0.000000
 11
707.513400
 21
441.661640
 31
0.000000
  6
CONTINUOUS
  0
LINE
  8
WHITE
 10
707.513400
 20
441.661640
 30
0.000000
 11
704.031174
 21
438.770030
 31
0.000000
  6
CONTINUOUS
  0
LINE
  8
WHITE
 10
704.031174
 20
438.770030
 30
0.000000
 11
704.090934
 21
438.823130
 31
0.000000
  6
CONTINUOUS
  0
ARC
  8
WHITE
 10
479.673995
 20
806.531799
 30
0.000000
 40
3.326757
 50
68.053975
 51
169.778508
  6
CONTINUOUS
  0
ARC
  8
WHITE
 10
530.740477
 20
782.007757
 30
0.000000
 40
59.863311
 50
155.195152
 51
175.004835
  6
CONTINUOUS
  0
ARC
  8
WHITE
 10
541.325855
 20
782.123654
 30
0.000000
 40
70.406034
 50
175.848883
 51
192.690498
  6
CONTINUOUS
  0
LINE
  8
WHITE
 10
472.639770
 20
766.656545
 30
0.000000
 11
472.637970
 21
766.656545
 31
0.000000
  6
CONTINUOUS
  0
ARC
  8
WHITE
 10
544.450512
 20
783.741177
 30
0.000000
 40
73.816839
 50
-166.617766
 51
-141.163367
  6
CONTINUOUS
  0
LINE
  8
WHITE
 10
486.951831
 20
737.450492
 30
0.000000
 11
486.951831
 21
737.448692
 31
0.000000
  6
CONTINUOUS
  0
ARC
  8
WHITE
 10
541.288458
 20
780.828544
 30
0.000000
 40
69.528991
 50
-141.397751
 51
-119.717201
  6
CONTINUOUS
  0
ARC
  8
WHITE
 10
537.259285
 20
774.863909
 30
0.000000
 40
62.353829
 50
-119.218717
 51
-101.097182
  6
CONTINUOUS
  0
LINE
  8
WHITE
 10
525.257812
 20
713.675964
 30
0.000000
 11
528.909547
 21
713.079706
 31
0.000000
  6
CONTINUOUS
  0
ARC
  8
WHITE
 10
529.702510
 20
715.983141
 30
0.000000
 40
3.009771
 50
-105.275639
 51
25.693143
  6
CONTINUOUS
  0
ARC
  8
WHITE
 10
529.668515
 20
715.921545
 30
0.000000
 40
3.067381
 50
26.454659
 51
82.875593
  6
CONTINUOUS
  0
ARC
  8
WHITE
 10
536.987973
 20
774.028497
 30
0.000000
 40
55.498758
 50
-120.677851
 51
-97.182509
  6
CONTINUOUS
  0
ARC
  8
WHITE
 10
541.977651
 20
781.565792
 30
0.000000
 40
64.528531
 50
-141.283366
 51
-121.073653
  6
CONTINUOUS
  0
LINE
  8
WHITE
 10
491.629338
 20
741.205184
 30
0.000000
 11
491.629338
 21
741.206984
 31
0.000000
  6
CONTINUOUS
  0
ARC
  8
WHITE
 10
543.704488
 20
783.248452
 30
0.000000
 40
66.927619
 50
-172.461771
 51
-141.085263
  6
CONTINUOUS
  0
ARC
  8
WHITE
 10
534.966347
 20
781.703727
 30
0.000000
 40
58.063625
 50
169.079691
 51
187.158281
  6
CONTINUOUS
  0
ARC
  8
WHITE
 10
530.841290
 20
782.152421
 30
0.000000
 40
53.929342
 50
158.984538
 51
168.717512
  6
CONTINUOUS
  0
ARC
  8
WHITE
 10
677.494917
 20
719.129135
 30
0.000000
 40
213.520662
 50
156.081454
 51
157.310324
  6
CONTINUOUS
  0
ARC
  8
WHITE
 10
479.587382
 20
806.937389
 30
0.000000
 40
2.992015
 50
-24.462177
 51
63.610782
  6
CONTINUOUS
  0
LINE
  8
WHITE
 10
480.917232
 20
809.617622
 30
0.000000
 11
480.917313
 21
809.617487
 31
0.000000
  6
CONTINUOUS
  0
ARC
  8
WHITE
 10
638.337196
 20
708.120859
 30
0.000000
 40
3.023633
 50
63.869172
 51
139.935899
  6
CONTINUOUS
  0
ARC
  8
WHITE
 10
750.436578
 20
641.376719
 30
0.000000
 40
133.449583
 50
149.020700
 51
152.433493
  6
CONTINUOUS
  0
ARC
  8
WHITE
 10
272.667250
 20
901.856964
 30
0.000000
 40
410.742246
 50
-33.236130
 51
-28.934779
  6
CONTINUOUS
  0
ARC
  8
WHITE
 10
579.422953
 20
699.949539
 30
0.000000
 40
43.508846
 50
-67.769953
 51
-32.249463
  6
CONTINUOUS
  0
ARC
  8
WHITE
 10
581.094705
 20
701.471159
 30
0.000000
 40
44.335766
 50
-101.025713
 51
-70.514799
  6
CONTINUOUS
  0
ARC
  8
WHITE
 10
589.399958
 20
754.306914
 30
0.000000
 40
97.804124
 50
-111.983191
 51
-99.881608
  6
CONTINUOUS
  0
ARC
  8
WHITE
 10
638.174089
 20
881.726822
 30
0.000000
 40
234.230668
 50
-112.484391
 51
-111.379052
  6
CONTINUOUS
  0
ARC
  8
WHITE
 10
546.178156
 20
661.698257
 30
0.000000
 40
4.339743
 50
56.128253
 51
113.404798
  6
CONTINUOUS
  0
ARC
  8
WHITE
 10
545.974044
 20
663.092439
 30
0.000000
 40
3.001652
 50
120.417815
 51
201.030089
  6
CONTINUOUS
  0
ARC
  8
WHITE
 10
547.495601
 20
664.669399
 30
0.000000
 40
5.072978
 50
-148.453571
 51
-102.243954
  6
CONTINUOUS
  0
ARC
  8
WHITE
 10
602.207303
 20
792.223874
 30
0.000000
 40
143.776552
 50
-112.831083
 51
-106.487403
  6
CONTINUOUS
  0
ARC
  8
WHITE
 10
581.233951
 20
716.220019
 30
0.000000
 40
64.961872
 50
-107.774571
 51
-83.204025
  6
CONTINUOUS
  0
ARC
  8
WHITE
 10
583.119535
 20
693.359082
 30
0.000000
 40
42.046681
 50
-82.068988
 51
-53.591919
  6
CONTINUOUS
  0
ARC
  8
WHITE
 10
576.830715
 20
702.044469
 30
0.000000
 40
52.769469
 50
-53.693714
 51
-36.681415
  6
CONTINUOUS
  0
ARC
  8
WHITE
 10
366.481219
 20
845.294865
 30
0.000000
 40
307.225057
 50
-34.671899
 51
-30.288505
  6
CONTINUOUS
  0
ARC
  8
WHITE
 10
213.156112
 20
934.578693
 30
0.000000
 40
484.651537
 50
-30.260853
 51
-28.871396
  6
CONTINUOUS
  0
LINE
  8
WHITE
 10
637.568219
 20
700.566993
 30
0.000000
 11
640.365162
 21
705.735494
 31
0.000000
  6
CONTINUOUS
  0
ARC
  8
WHITE
 10
637.888615
 20
707.994688
 30
0.000000
 40
3.352199
 50
-42.372184
 51
57.927949
  6
CONTINUOUS
  0
LINE
  8
WHITE
 10
639.668583
 20
710.835278
 30
0.000000
 11
639.668871
 21
710.835449
 31
0.000000
  6
CONTINUOUS
  0
ARC
  8
WHITE
 10
367.860183
 20
847.939778
 30
0.000000
 40
192.399882
 50
94.777500
 51
116.734932
  6
CONTINUOUS
  0
ARC
  8
WHITE
 10
308.447560
 20
962.393698
 30
0.000000
 40
63.473306
 50
115.315240
 51
131.960334
  6
CONTINUOUS
  0
ARC
  8
WHITE
 10
344.800829
 20
915.588926
 30
0.000000
 40
122.658142
 50
129.969152
 51
142.884578
  6
CONTINUOUS
  0
ARC
  8
WHITE
 10
272.091714
 20
972.277164
 30
0.000000
 40
30.500377
 50
145.383990
 51
151.875920
  6
CONTINUOUS
  0
ARC
  8
WHITE
 10
247.918476
 20
985.546248
 30
0.000000
 40
2.942602
 50
157.875113
 51
319.821864
  6
CONTINUOUS
  0
ARC
  8
WHITE
 10
318.525788
 20
937.814574
 30
0.000000
 40
82.302134
 50
135.105048
 51
146.159031
  6
CONTINUOUS
  0
ARC
  8
WHITE
 10
360.513490
 20
899.501918
 30
0.000000
 40
139.110098
 50
130.410678
 51
136.132539
  6
CONTINUOUS
  0
ARC
  8
WHITE
 10
306.960236
 20
963.986593
 30
0.000000
 40
55.303338
 50
118.880401
 51
131.474292
  6
CONTINUOUS
  0
ARC
  8
WHITE
 10
362.255026
 20
862.585810
 30
0.000000
 40
170.800230
 50
104.418896
 51
118.693526
  6
CONTINUOUS
  0
ARC
  8
WHITE
 10
370.661953
 20
832.093976
 30
0.000000
 40
202.425753
 50
98.551952
 51
104.574392
  6
CONTINUOUS
  0
ARC
  8
WHITE
 10
370.114225
 20
834.603960
 30
0.000000
 40
199.862296
 50
95.453612
 51
98.503680
  6
CONTINUOUS
  0
ARC
  8
WHITE
 10
351.149848
 20
1039.153845
 30
0.000000
 40
5.592354
 50
-90.312492
 51
-63.148390
  6
CONTINUOUS
  0
ARC
  8
WHITE
 10
352.058020
 20
1036.684669
 30
0.000000
 40
2.994776
 50
-57.302476
 51
94.254128
  6
CONTINUOUS
  0
ARC
  8
WHITE
 10
356.266530
 20
835.727339
 30
0.000000
 40
57.305697
 50
89.199526
 51
115.368673
  6
CONTINUOUS
  0
ARC
  8
WHITE
 10
351.685661
 20
846.502201
 30
0.000000
 40
45.609723
 50
115.968226
 51
130.353158
  6
CONTINUOUS
  0
ARC
  8
WHITE
 10
372.739159
 20
826.431109
 30
0.000000
 40
74.599640
 50
132.694977
 51
136.817557
  6
CONTINUOUS
  0
ARC
  8
WHITE
 10
393.962845
 20
770.200820
 30
0.000000
 40
131.253682
 50
125.179310
 51
134.258877
  6
CONTINUOUS
  0
ARC
  8
WHITE
 10
474.012909
 20
696.052559
 30
0.000000
 40
240.290134
 50
135.590275
 51
144.269489
  6
CONTINUOUS
  0
ARC
  8
WHITE
 10
1426.750727
 20
-14.812659
 30
0.000000
 40
1428.972909
 50
143.439989
 51
143.713638
  6
CONTINUOUS
  0
ARC
  8
WHITE
 10
1571.742085
 20
-118.118672
 30
0.000000
 40
1606.986679
 50
143.804099
 51
143.918163
  6
CONTINUOUS
  0
ARC
  8
WHITE
 10
275.190696
 20
826.152358
 30
0.000000
 40
3.058796
 50
135.392715
 51
251.512829
  6
CONTINUOUS
  0
ARC
  8
WHITE
 10
275.126497
 20
825.894053
 30
0.000000
 40
2.793544
 50
-108.918308
 51
-49.326106
  6
CONTINUOUS
  0
ARC
  8
WHITE
 10
99.048864
 20
964.881787
 30
0.000000
 40
227.065730
 50
-38.420954
 51
-35.580687
  6
CONTINUOUS
  0
ARC
  8
WHITE
 10
637.771747
 20
568.740612
 30
0.000000
 40
441.656423
 50
140.731313
 51
143.287337
  6
CONTINUOUS
  0
ARC
  8
WHITE
 10
407.431289
 20
755.748914
 30
0.000000
 40
144.965197
 50
128.648982
 51
140.329529
  6
CONTINUOUS
  0
ARC
  8
WHITE
 10
239.793789
 20
974.311396
 30
0.000000
 40
130.546111
 50
-53.800774
 51
-50.560869
  6
CONTINUOUS
  0
ARC
  8
WHITE
 10
352.675294
 20
845.281143
 30
0.000000
 40
41.144140
 50
105.852227
 51
136.715117
  6
CONTINUOUS
  0
LINE
  8
WHITE
 10
341.436474
 20
884.860547
 30
0.000000
 11
341.431074
 21
884.860547
 31
0.000000
  6
CONTINUOUS
  0
ARC
  8
WHITE
 10
355.777916
 20
837.686408
 30
0.000000
 40
49.307517
 50
78.320413
 51
106.915835
  6
CONTINUOUS
  0
ARC
  8
WHITE
 10
371.709069
 20
905.232960
 30
0.000000
 40
20.157905
 50
-107.165972
 51
-98.431397
  6
CONTINUOUS
  0
ARC
  8
WHITE
 10
368.989304
 20
888.170887
 30
0.000000
 40
2.887619
 50
-94.685719
 51
11.965549
  6
CONTINUOUS
  0
ARC
  8
WHITE
 10
368.762279
 20
888.213827
 30
0.000000
 40
3.102089
 50
10.320108
 51
85.194845
  6
CONTINUOUS
  0
ARC
  8
WHITE
 10
356.645833
 20
847.750895
 30
0.000000
 40
45.278406
 50
74.137017
 51
89.467488
  6
CONTINUOUS
  0
LINE
  8
WHITE
 10
357.066648
 20
893.027345
 30
0.000000
 11
357.067116
 21
893.027444
 31
0.000000
  6
CONTINUOUS
  0
ARC
  8
WHITE
 10
669.979897
 20
837.658385
 30
0.000000
 40
3.033148
 50
95.407294
 51
171.239013
  6
CONTINUOUS
  0
ARC
  8
WHITE
 10
809.282694
 20
838.443972
 30
0.000000
 40
142.300922
 50
-179.869706
 51
-176.668407
  6
CONTINUOUS
  0
ARC
  8
WHITE
 10
455.747836
 20
826.155268
 30
0.000000
 40
211.512621
 50
-15.618660
 51
1.088744
  6
CONTINUOUS
  0
ARC
  8
WHITE
 10
388.823020
 20
843.629423
 30
0.000000
 40
280.673382
 50
-24.818965
 51
-15.375843
  6
CONTINUOUS
  0
ARC
  8
WHITE
 10
663.727643
 20
715.419204
 30
0.000000
 40
22.678266
 50
152.712859
 51
163.650455
  6
CONTINUOUS
  0
ARC
  8
WHITE
 10
644.970704
 20
721.673781
 30
0.000000
 40
3.007049
 50
177.536025
 51
336.522166
  6
CONTINUOUS
  0
ARC
  8
WHITE
 10
391.549744
 20
842.183985
 30
0.000000
 40
283.620520
 50
-25.411940
 51
-12.681427
  6
CONTINUOUS
  0
ARC
  8
WHITE
 10
453.132302
 20
827.036284
 30
0.000000
 40
220.218447
 50
-12.353871
 51
-4.156009
  6
CONTINUOUS
  0
ARC
  8
WHITE
 10
483.666451
 20
824.768764
 30
0.000000
 40
189.600263
 50
-4.141301
 51
0.619480
  6
CONTINUOUS
  0
ARC
  8
WHITE
 10
543.558837
 20
826.997221
 30
0.000000
 40
129.696918
 50
-0.078875
 51
3.400938
  6
CONTINUOUS
  0
ARC
  8
WHITE
 10
649.179028
 20
834.622718
 30
0.000000
 40
23.848411
 50
0.164514
 51
9.603545
  6
CONTINUOUS
  0
ARC
  8
WHITE
 10
669.792302
 20
837.615875
 30
0.000000
 40
3.063735
 50
18.763077
 51
91.837408
  6
CONTINUOUS
  0
ARC
  8
WHITE
 10
379.524107
 20
697.258048
 30
0.000000
 40
43.480986
 50
-169.371907
 51
-157.934843
  6
CONTINUOUS
  0
ARC
  8
WHITE
 10
345.437812
 20
682.843330
 30
0.000000
 40
6.499878
 50
-162.824770
 51
-95.878007
  6
CONTINUOUS
  0
ARC
  8
WHITE
 10
344.057187
 20
685.488271
 30
0.000000
 40
9.138656
 50
-85.512845
 51
-43.855365
  6
CONTINUOUS
  0
ARC
  8
WHITE
 10
452.329613
 20
572.875474
 30
0.000000
 40
147.088554
 50
129.203373
 51
133.733268
  6
CONTINUOUS
  0
ARC
  8
WHITE
 10
362.974293
 20
683.831776
 30
0.000000
 40
4.713358
 50
86.679424
 51
140.095138
  6
CONTINUOUS
  0
ARC
  8
WHITE
 10
362.727839
 20
691.451353
 30
0.000000
 40
2.960070
 50
-79.892786
 51
67.593043
  6
CONTINUOUS
  0
ARC
  8
WHITE
 10
362.124155
 20
685.669615
 30
0.000000
 40
8.692622
 50
78.506859
 51
116.216034
  6
CONTINUOUS
  0
ARC
  8
WHITE
 10
389.791572
 20
646.802354
 30
0.000000
 40
56.306374
 50
124.026170
 51
132.762523
  6
CONTINUOUS
  0
ARC
  8
WHITE
 10
291.476289
 20
750.487011
 30
0.000000
 40
86.586837
 50
-51.738945
 51
-46.057772
  6
CONTINUOUS
  0
LINE
  8
WHITE
 10
345.094794
 20
682.499246
 30
0.000000
 11
344.917260
 21
682.898270
 31
0.000000
  6
CONTINUOUS
  0
LINE
  8
WHITE
 10
344.917260
 20
682.898270
 30
0.000000
 11
344.945340
 21
682.845530
 31
0.000000
  6
CONTINUOUS
  0
ARC
  8
WHITE
 10
374.383243
 20
695.636373
 30
0.000000
 40
32.096663
 50
-168.975801
 51
-156.514931
  6
CONTINUOUS
  0
ARC
  8
WHITE
 10
318.809288
 20
684.747841
 30
0.000000
 40
24.533977
 50
11.165606
 51
17.272423
  6
CONTINUOUS
  0
ARC
  8
WHITE
 10
338.929648
 20
690.764354
 30
0.000000
 40
3.541974
 50
20.976959
 51
57.806926
  6
CONTINUOUS
  0
ARC
  8
WHITE
 10
434.445510
 20
840.271329
 30
0.000000
 40
173.871789
 50
-127.866559
 51
-122.581129
  6
CONTINUOUS
  0
LINE
  8
WHITE
 10
327.718737
 20
703.009553
 30
0.000000
 11
327.720537
 21
703.005953
 31
0.000000
  6
CONTINUOUS
  0
ARC
  8
WHITE
 10
345.269114
 20
726.241926
 30
0.000000
 40
29.118087
 50
-160.941246
 51
-127.061312
  6
CONTINUOUS
  0
ARC
  8
WHITE
 10
353.454950
 20
726.709218
 30
0.000000
 40
37.075003
 50
175.657150
 51
195.608405
  6
CONTINUOUS
  0
ARC
  8
WHITE
 10
503.071836
 20
710.742476
 30
0.000000
 40
187.527591
 50
168.336405
 51
174.254237
  6
CONTINUOUS
  0
ARC
  8
WHITE
 10
525.402047
 20
706.873909
 30
0.000000
 40
210.180058
 50
165.893733
 51
168.534234
  6
CONTINUOUS
  0
LINE
  8
WHITE
 10
321.559893
 20
758.099223
 30
0.000000
 11
322.799560
 21
762.781378
 31
0.000000
  6
CONTINUOUS
  0
ARC
  8
WHITE
 10
319.902977
 20
763.717724
 30
0.000000
 40
3.044164
 50
-17.913886
 51
73.553813
  6
CONTINUOUS
  0
LINE
  8
WHITE
 10
320.764824
 20
766.637339
 30
0.000000
 11
320.764770
 21
766.637213
 31
0.000000
  6
CONTINUOUS
  0
ARC
  8
WHITE
 10
320.094153
 20
763.406093
 30
0.000000
 40
3.299979
 50
78.274751
 51
177.463407
  6
CONTINUOUS
  0
ARC
  8
WHITE
 10
507.019905
 20
710.882009
 30
0.000000
 40
197.379689
 50
164.523283
 51
170.756522
  6
CONTINUOUS
  0
ARC
  8
WHITE
 10
403.647456
 20
724.205736
 30
0.000000
 40
93.273349
 50
168.634306
 51
178.524671
  6
CONTINUOUS
  0
ARC
  8
WHITE
 10
349.063508
 20
726.034120
 30
0.000000
 40
38.662729
 50
179.150703
 51
197.048910
  6
CONTINUOUS
  0
ARC
  8
WHITE
 10
344.101485
 20
725.622336
 30
0.000000
 40
33.814685
 50
-161.152834
 51
-130.463735
  6
CONTINUOUS
  0
ARC
  8
WHITE
 10
408.442752
 20
802.994916
 30
0.000000
 40
134.442293
 50
-129.926620
 51
-122.206350
  6
CONTINUOUS
  0
ARC
  8
WHITE
 10
1339.127806
 20
398.972888
 30
0.000000
 40
946.075238
 50
143.258752
 51
144.548111
  6
CONTINUOUS
  0
ARC
  8
WHITE
 10
625.481376
 20
933.558523
 30
0.000000
 40
54.427995
 50
128.010926
 51
144.819833
  6
CONTINUOUS
  0
ARC
  8
WHITE
 10
599.878496
 20
966.031110
 30
0.000000
 40
13.077681
 50
101.009142
 51
127.242717
  6
CONTINUOUS
  0
ARC
  8
WHITE
 10
598.162882
 20
968.357013
 30
0.000000
 40
10.540139
 50
37.456494
 51
94.253596
  6
CONTINUOUS
  0
ARC
  8
WHITE
 10
551.605648
 20
917.483549
 30
0.000000
 40
79.360364
 50
43.368904
 51
46.204578
  6
CONTINUOUS
  0
ARC
  8
WHITE
 10
612.829611
 20
975.092579
 30
0.000000
 40
4.708796
 50
-138.618896
 51
-96.900585
  6
CONTINUOUS
  0
ARC
  8
WHITE
 10
612.260030
 20
973.330561
 30
0.000000
 40
2.912671
 50
-89.924591
 51
27.857370
  6
CONTINUOUS
  0
ARC
  8
WHITE
 10
557.469065
 20
925.048453
 30
0.000000
 40
75.863747
 50
40.872054
 51
47.681026
  6
CONTINUOUS
  0
ARC
  8
WHITE
 10
598.020018
 20
968.841909
 30
0.000000
 40
16.188984
 50
49.448910
 51
81.392179
  6
CONTINUOUS
  0
LINE
  8
WHITE
 10
600.443028
 20
984.848540
 30
0.000000
 11
600.443289
 21
984.848540
 31
0.000000
  6
CONTINUOUS
  0
ARC
  8
WHITE
 10
598.920886
 20
967.790817
 30
0.000000
 40
17.125526
 50
84.899859
 51
128.319940
  6
CONTINUOUS
  0
ARC
  8
WHITE
 10
631.527724
 20
927.577773
 30
0.000000
 40
68.896082
 50
128.858724
 51
145.044088
  6
CONTINUOUS
  0
ARC
  8
WHITE
 10
1888.077638
 20
3.275315
 30
0.000000
 40
1628.765582
 50
143.720708
 51
144.405504
  6
CONTINUOUS
  0
LINE
  8
WHITE
 10
563.636025
 20
951.289943
 30
0.000000
 11
563.634225
 21
951.289943
 31
0.000000
  6
CONTINUOUS
  0
ARC
  8
WHITE
 10
476.245684
 20
1013.323782
 30
0.000000
 40
107.167879
 50
-47.200080
 51
-35.369510
  6
CONTINUOUS
  0
ARC
  8
WHITE
 10
524.672272
 20
961.764686
 30
0.000000
 40
36.437848
 50
-65.384154
 51
-47.987499
  6
CONTINUOUS
  0
ARC
  8
WHITE
 10
530.930196
 20
948.431484
 30
0.000000
 40
21.710152
 50
-94.933683
 51
-65.741763
  6
CONTINUOUS
  0
ARC
  8
WHITE
 10
496.147651
 20
925.244333
 30
0.000000
 40
32.952240
 50
2.709008
 51
10.997278
  6
CONTINUOUS
  0
ARC
  8
WHITE
 10
525.769363
 20
930.158317
 30
0.000000
 40
3.051290
 50
26.722292
 51
196.074202
  6
CONTINUOUS
  0
ARC
  8
WHITE
 10
561.406992
 20
929.471278
 30
0.000000
 40
38.569948
 50
-179.765575
 51
-173.957549
  6
CONTINUOUS
  0
ARC
  8
WHITE
 10
528.818982
 20
925.445065
 30
0.000000
 40
5.767749
 50
-179.663597
 51
-143.370585
  6
CONTINUOUS
  0
ARC
  8
WHITE
 10
527.195798
 20
925.570338
 30
0.000000
 40
4.664026
 50
-130.120743
 51
-87.877180
  6
CONTINUOUS
  0
ARC
  8
WHITE
 10
530.855779
 20
948.168499
 30
0.000000
 40
27.481139
 50
-97.290198
 51
-70.416807
  6
CONTINUOUS
  0
ARC
  8
WHITE
 10
524.330813
 20
963.038470
 30
0.000000
 40
43.693469
 50
-68.890929
 51
-43.536583
  6
CONTINUOUS
  0
ARC
  8
WHITE
 10
466.501311
 20
1020.989264
 30
0.000000
 40
125.552476
 50
-44.529906
 51
-35.706401
  6
CONTINUOUS
  0
LINE
  8
WHITE
 10
568.452222
 20
947.712830
 30
0.000000
 11
568.452222
 21
947.714630
 31
0.000000
  6
CONTINUOUS
  0
ARC
  8
WHITE
 10
530.440281
 20
674.028665
 30
0.000000
 40
323.139853
 50
-108.977133
 51
-103.182471
  6
CONTINUOUS
  0
ARC
  8
WHITE
 10
511.684799
 20
625.919136
 30
0.000000
 40
271.554096
 50
-113.707400
 51
-108.535878
  6
CONTINUOUS
  0
ARC
  8
WHITE
 10
400.969183
 20
374.305183
 30
0.000000
 40
3.347718
 50
62.747978
 51
141.166859
  6
CONTINUOUS
  0
ARC
  8
WHITE
 10
400.852833
 20
374.691174
 30
0.000000
 40
3.023634
 50
145.486072
 51
227.281154
  6
CONTINUOUS
  0
ARC
  8
WHITE
 10
401.259390
 20
374.980386
 30
0.000000
 40
3.513419
 50
-134.390494
 51
-101.455965
  6
CONTINUOUS
  0
ARC
  8
WHITE
 10
534.166540
 20
686.252999
 30
0.000000
 40
341.901259
 50
-113.002458
 51
-102.510378
  6
CONTINUOUS
  0
ARC
  8
WHITE
 10
535.214358
 20
696.398293
 30
0.000000
 40
352.034605
 50
-102.319189
 51
-94.669699
  6
CONTINUOUS
  0
ARC
  8
WHITE
 10
528.770667
 20
617.540672
 30
0.000000
 40
272.914157
 50
-94.669197
 51
-92.818925
  6
CONTINUOUS
  0
ARC
  8
WHITE
 10
516.418467
 20
349.295885
 30
0.000000
 40
4.469021
 50
-103.847791
 51
-51.284866
  6
CONTINUOUS
  0
ARC
  8
WHITE
 10
517.157247
 20
347.838786
 30
0.000000
 40
2.889501
 50
-44.629260
 51
34.515033
  6
CONTINUOUS
  0
ARC
  8
WHITE
 10
516.584017
 20
347.269440
 30
0.000000
 40
3.687260
 50
36.758217
 51
96.668761
  6
CONTINUOUS
  0
ARC
  8
WHITE
 10
533.528023
 20
685.276037
 30
0.000000
 40
334.795302
 50
-103.258007
 51
-92.974358
  6
CONTINUOUS
  0
ARC
  8
WHITE
 10
446.276054
 20
843.281909
 30
0.000000
 40
3.222328
 50
77.939483
 51
141.392189
  6
CONTINUOUS
  0
ARC
  8
WHITE
 10
371.334282
 20
869.848192
 30
0.000000
 40
76.473355
 50
-38.796646
 51
-18.729462
  6
CONTINUOUS
  0
ARC
  8
WHITE
 10
279.498544
 20
948.397125
 30
0.000000
 40
197.297574
 50
-47.642234
 51
-39.864988
  6
CONTINUOUS
  0
LINE
  8
WHITE
 10
412.429338
 20
802.603652
 30
0.000000
 11
412.429338
 21
802.605452
 31
0.000000
  6
CONTINUOUS
  0
LINE
  8
WHITE
 10
412.429338
 20
802.605452
 30
0.000000
 11
405.053283
 21
795.674146
 31
0.000000
  6
CONTINUOUS
  0
ARC
  8
WHITE
 10
408.443777
 20
790.680856
 30
0.000000
 40
6.035594
 50
124.176899
 51
166.262191
  6
CONTINUOUS
  0
ARC
  8
WHITE
 10
447.814125
 20
787.334646
 30
0.000000
 40
45.485091
 50
173.968269
 51
194.884413
  6
CONTINUOUS
  0
ARC
  8
WHITE
 10
498.832624
 20
796.830999
 30
0.000000
 40
97.310329
 50
-167.428649
 51
-152.762456
  6
CONTINUOUS
  0
ARC
  8
WHITE
 10
441.220865
 20
766.613298
 30
0.000000
 40
32.260562
 50
-153.649222
 51
-131.545392
  6
CONTINUOUS
  0
ARC
  8
WHITE
 10
425.462197
 20
749.125024
 30
0.000000
 40
8.722645
 50
-130.259052
 51
-109.806885
  6
CONTINUOUS
  0
ARC
  8
WHITE
 10
423.772844
 20
743.602490
 30
0.000000
 40
2.967804
 50
-115.257493
 51
65.025486
  6
CONTINUOUS
  0
ARC
  8
WHITE
 10
430.884966
 20
757.139480
 30
0.000000
 40
12.327991
 50
-146.741690
 51
-118.376649
  6
CONTINUOUS
  0
ARC
  8
WHITE
 10
458.497438
 20
777.406857
 30
0.000000
 40
46.567628
 50
-157.688698
 51
-144.520751
  6
CONTINUOUS
  0
ARC
  8
WHITE
 10
498.269256
 20
796.741835
 30
0.000000
 40
90.745083
 50
-166.063365
 51
-155.927756
  6
CONTINUOUS
  0
ARC
  8
WHITE
 10
490.535246
 20
794.628648
 30
0.000000
 40
82.729997
 50
-171.751293
 51
-166.193744
  6
CONTINUOUS
  0
ARC
  8
WHITE
 10
432.525273
 20
787.014277
 30
0.000000
 40
24.240506
 50
171.131941
 51
190.109477
  6
CONTINUOUS
  0
LINE
  8
WHITE
 10
408.574539
 20
790.751183
 30
0.000000
 11
416.537424
 21
798.230669
 31
0.000000
  6
CONTINUOUS
  0
LINE
  8
WHITE
 10
416.537424
 20
798.230669
 30
0.000000
 11
416.537424
 21
798.232469
 31
0.000000
  6
CONTINUOUS
  0
ARC
  8
WHITE
 10
296.731522
 20
931.233786
 30
0.000000
 40
179.005041
 50
-47.987874
 51
-38.309454
  6
CONTINUOUS
  0
ARC
  8
WHITE
 10
373.723331
 20
868.618634
 30
0.000000
 40
79.788261
 50
-37.300755
 51
-26.444301
  6
CONTINUOUS
  0
ARC
  8
WHITE
 10
391.704973
 20
860.140489
 30
0.000000
 40
59.913976
 50
-26.842761
 51
-19.616461
  6
CONTINUOUS
  0
ARC
  8
WHITE
 10
433.911866
 20
845.819984
 30
0.000000
 40
15.364091
 50
-22.154763
 51
-8.106739
  6
CONTINUOUS
  0
ARC
  8
WHITE
 10
445.997115
 20
843.449860
 30
0.000000
 40
3.131929
 50
3.725746
 51
72.295511
  6
CONTINUOUS
  0
LINE
  8
WHITE
 10
446.949558
 20
846.433454
 30
0.000000
 11
446.949342
 21
846.433112
 31
0.000000
  6
CONTINUOUS
  0
ARC
  8
WHITE
 10
187.883114
 20
694.838835
 30
0.000000
 40
3.023826
 50
93.870029
 51
169.937285
  6
CONTINUOUS
  0
ARC
  8
WHITE
 10
303.508162
 20
695.465339
 30
0.000000
 40
118.602400
 50
-179.952578
 51
-176.113371
  6
CONTINUOUS
  0
ARC
  8
WHITE
 10
577.656283
 20
712.654856
 30
0.000000
 40
393.287770
 50
-176.322057
 51
-167.337476
  6
CONTINUOUS
  0
ARC
  8
WHITE
 10
544.341188
 20
704.054468
 30
0.000000
 40
358.899336
 50
-167.511212
 51
-160.126561
  6
CONTINUOUS
  0
LINE
  8
WHITE
 10
206.815808
 20
582.048929
 30
0.000000
 11
208.254227
 21
577.957645
 31
0.000000
  6
CONTINUOUS
  0
ARC
  8
WHITE
 10
212.021425
 20
578.476508
 30
0.000000
 40
3.802762
 50
-172.157891
 51
-109.305265
  6
CONTINUOUS
  0
ARC
  8
WHITE
 10
211.547360
 20
577.730425
 30
0.000000
 40
2.948746
 50
-105.401508
 51
-26.675024
  6
CONTINUOUS
  0
ARC
  8
WHITE
 10
209.604825
 20
577.888474
 30
0.000000
 40
4.811314
 50
-17.938032
 51
28.696561
  6
CONTINUOUS
  0
ARC
  8
WHITE
 10
567.585159
 20
710.684976
 30
0.000000
 40
377.058056
 50
-169.039311
 51
-159.753235
  6
CONTINUOUS
  0
ARC
  8
WHITE
 10
566.904872
 20
710.588273
 30
0.000000
 40
376.371793
 50
-173.685403
 51
-169.034073
  6
CONTINUOUS
  0
ARC
  8
WHITE
 10
532.302925
 20
707.411066
 30
0.000000
 40
341.630939
 50
-176.138910
 51
-173.576751
  6
CONTINUOUS
  0
LINE
  8
WHITE
 10
191.447408
 20
684.406408
 30
0.000000
 11
190.981272
 21
692.031307
 31
0.000000
  6
CONTINUOUS
  0
ARC
  8
WHITE
 10
167.088574
 20
691.527341
 30
0.000000
 40
23.898012
 50
1.208354
 51
10.350586
  6
CONTINUOUS
  0
ARC
  8
WHITE
 10
187.677871
 20
694.743404
 30
0.000000
 40
3.112362
 50
20.259235
 51
89.978753
  6
CONTINUOUS
  0
ARC
  8
WHITE
 10
277.448170
 20
1027.465770
 30
0.000000
 40
40.558258
 50
-56.246800
 51
-44.707521
  6
CONTINUOUS
  0
ARC
  8
WHITE
 10
409.879140
 20
849.500994
 30
0.000000
 40
181.337319
 50
127.303104
 51
132.140982
  6
CONTINUOUS
  0
ARC
  8
WHITE
 10
463.815480
 20
787.275513
 30
0.000000
 40
263.672099
 50
131.759174
 51
137.583245
  6
CONTINUOUS
  0
ARC
  8
WHITE
 10
279.230521
 20
954.412306
 30
0.000000
 40
14.706321
 50
133.231752
 51
152.743730
  6
CONTINUOUS
  0
ARC
  8
WHITE
 10
269.064141
 20
960.611811
 30
0.000000
 40
2.955976
 50
169.561449
 51
260.831792
  6
CONTINUOUS
  0
ARC
  8
WHITE
 10
269.032263
 20
961.309866
 30
0.000000
 40
3.642829
 50
-96.923299
 51
-27.379596
  6
CONTINUOUS
  0
ARC
  8
WHITE
 10
470.517249
 20
780.378374
 30
0.000000
 40
267.275034
 50
130.778973
 51
137.880375
  6
CONTINUOUS
  0
ARC
  8
WHITE
 10
405.554282
 20
856.647073
 30
0.000000
 40
167.092788
 50
128.152682
 51
130.992300
  6
CONTINUOUS
  0
ARC
  8
WHITE
 10
278.606004
 20
1025.184119
 30
0.000000
 40
44.071737
 50
-57.429917
 51
-41.279846
  6
CONTINUOUS
  0
ARC
  8
WHITE
 10
307.656503
 20
999.882751
 30
0.000000
 40
5.550216
 50
-42.847269
 51
21.268213
  6
CONTINUOUS
  0
ARC
  8
WHITE
 10
307.638022
 20
998.941829
 30
0.000000
 40
5.972468
 50
29.645506
 51
89.232277
  6
CONTINUOUS
  0
LINE
  8
WHITE
 10
307.718046
 20
1004.913761
 30
0.000000
 11
307.718289
 21
1004.913968
 31
0.000000
  6
CONTINUOUS
  0
ARC
  8
WHITE
 10
305.751715
 20
974.043227
 30
0.000000
 40
30.933317
 50
86.354984
 51
100.970376
  6
CONTINUOUS
  0
ARC
  8
WHITE
 10
322.186443
 20
888.338051
 30
0.000000
 40
118.199973
 50
100.885342
 51
115.223643
  6
CONTINUOUS
  0
ARC
  8
WHITE
 10
288.717614
 20
957.697049
 30
0.000000
 40
41.197732
 50
114.222113
 51
129.648225
  6
CONTINUOUS
  0
ARC
  8
WHITE
 10
190.821503
 20
1063.281501
 30
0.000000
 40
102.876692
 50
-51.293342
 51
-45.887765
  6
CONTINUOUS
  0
ARC
  8
WHITE
 10
262.419267
 20
972.109962
 30
0.000000
 40
13.091986
 50
123.708015
 51
142.189768
  6
CONTINUOUS
  0
ARC
  8
WHITE
 10
254.789887
 20
978.877255
 30
0.000000
 40
2.991582
 50
155.117699
 51
306.568950
  6
CONTINUOUS
  0
ARC
  8
WHITE
 10
182.426177
 20
1073.492028
 30
0.000000
 40
122.106597
 50
-52.610946
 51
-46.071290
  6
CONTINUOUS
  0
ARC
  8
WHITE
 10
293.826550
 20
949.252115
 30
0.000000
 40
45.053103
 50
113.032896
 51
126.324191
  6
CONTINUOUS
  0
ARC
  8
WHITE
 10
323.340085
 20
884.993619
 30
0.000000
 40
115.753997
 50
106.272556
 51
114.032297
  6
CONTINUOUS
  0
ARC
  8
WHITE
 10
309.734899
 20
936.846348
 30
0.000000
 40
62.183602
 50
93.191236
 51
107.626524
  6
CONTINUOUS
  0
ARC
  8
WHITE
 10
574.279288
 20
559.769281
 30
0.000000
 40
201.073139
 50
-61.952624
 51
-50.926290
  6
CONTINUOUS
  0
ARC
  8
WHITE
 10
601.019490
 20
508.744676
 30
0.000000
 40
143.468162
 50
-64.693287
 51
-61.796059
  6
CONTINUOUS
  0
ARC
  8
WHITE
 10
663.740846
 20
375.395707
 30
0.000000
 40
3.906260
 50
110.906298
 51
160.604093
  6
CONTINUOUS
  0
ARC
  8
WHITE
 10
662.955168
 20
375.958427
 30
0.000000
 40
2.990497
 50
165.781563
 51
291.943513
  6
CONTINUOUS
  0
ARC
  8
WHITE
 10
572.859681
 20
562.063620
 30
0.000000
 40
209.750100
 50
-64.223285
 51
-37.225607
  6
CONTINUOUS
  0
ARC
  8
WHITE
 10
580.276018
 20
554.808073
 30
0.000000
 40
199.459666
 50
-36.854830
 51
-32.864947
  6
CONTINUOUS
  0
ARC
  8
WHITE
 10
651.930709
 20
510.186273
 30
0.000000
 40
115.067234
 50
-33.564069
 51
-30.105772
  6
CONTINUOUS
  0
ARC
  8
WHITE
 10
742.284933
 20
458.997033
 30
0.000000
 40
11.273154
 50
-35.387003
 51
-17.772849
  6
CONTINUOUS
  0
ARC
  8
WHITE
 10
749.718961
 20
455.753595
 30
0.000000
 40
3.307016
 50
-3.426007
 51
56.412237
  6
CONTINUOUS
  0
LINE
  8
WHITE
 10
751.548447
 20
458.508470
 30
0.000000
 11
751.548366
 21
458.510270
 31
0.000000
  6
CONTINUOUS
  0
ARC
  8
WHITE
 10
750.052644
 20
455.916704
 30
0.000000
 40
2.993956
 50
60.027747
 51
148.698261
  6
CONTINUOUS
  0
ARC
  8
WHITE
 10
577.707247
 20
557.159409
 30
0.000000
 40
196.888914
 50
-51.222010
 51
-30.418481
  6
CONTINUOUS
  0
ARC
  8
WHITE
 10
536.138912
 20
648.024689
 30
0.000000
 40
297.211151
 50
-80.349272
 51
-67.880249
  6
CONTINUOUS
  0
ARC
  8
WHITE
 10
532.904585
 20
667.794477
 30
0.000000
 40
317.243389
 50
-89.132668
 51
-80.371971
  6
CONTINUOUS
  0
LINE
  8
WHITE
 10
537.706767
 20
350.587436
 30
0.000000
 11
533.159511
 21
350.518052
 31
0.000000
  6
CONTINUOUS
  0
ARC
  8
WHITE
 10
532.420144
 20
347.150698
 30
0.000000
 40
3.447570
 50
77.616123
 51
151.094303
  6
CONTINUOUS
  0
ARC
  8
WHITE
 10
532.111813
 20
347.535483
 30
0.000000
 40
2.997548
 50
154.686476
 51
235.373904
  6
CONTINUOUS
  0
ARC
  8
WHITE
 10
533.280408
 20
351.351916
 30
0.000000
 40
6.908275
 50
-114.564204
 51
-80.521361
  6
CONTINUOUS
  0
ARC
  8
WHITE
 10
532.910529
 20
665.484631
 30
0.000000
 40
320.950212
 50
-89.730876
 51
-78.290474
  6
CONTINUOUS
  0
ARC
  8
WHITE
 10
530.235622
 20
670.393787
 30
0.000000
 40
326.304113
 50
-78.005503
 51
-72.379464
  6
CONTINUOUS
  0
ARC
  8
WHITE
 10
538.317140
 20
641.849626
 30
0.000000
 40
296.654295
 50
-72.198242
 51
-69.103968
  6
CONTINUOUS
  0
LINE
  8
WHITE
 10
644.125808
 20
364.706528
 30
0.000000
 11
647.854958
 21
366.168285
 31
0.000000
  6
CONTINUOUS
  0
ARC
  8
WHITE
 10
637.485542
 20
394.680022
 30
0.000000
 40
30.338819
 50
-70.014210
 51
-64.351695
  6
CONTINUOUS
  0
ARC
  8
WHITE
 10
649.173202
 20
369.932234
 30
0.000000
 40
2.975732
 50
-60.962333
 51
112.137055
  6
CONTINUOUS
  0
ARC
  8
WHITE
 10
257.934777
 20
689.192923
 30
0.000000
 40
3.023820
 50
89.690754
 51
165.755427
  6
CONTINUOUS
  0
ARC
  8
WHITE
 10
280.958392
 20
687.690264
 30
0.000000
 40
26.051525
 50
175.052619
 51
192.520878
  6
CONTINUOUS
  0
ARC
  8
WHITE
 10
56.618216
 20
645.306526
 30
0.000000
 40
202.272120
 50
1.729172
 51
10.463911
  6
CONTINUOUS
  0
ARC
  8
WHITE
 10
72.811551
 20
648.563939
 30
0.000000
 40
186.008452
 50
-7.435035
 51
0.876737
  6
CONTINUOUS
  0
LINE
  8
WHITE
 10
257.256085
 20
624.494080
 30
0.000000
 11
255.773051
 21
612.785935
 31
0.000000
  6
CONTINUOUS
  0
ARC
  8
WHITE
 10
396.705627
 20
615.544171
 30
0.000000
 40
140.959564
 50
-178.878789
 51
-160.889138
  6
CONTINUOUS
  0
ARC
  8
WHITE
 10
266.270270
 20
570.508493
 30
0.000000
 40
2.972176
 50
-157.986106
 51
0.636518
  6
CONTINUOUS
  0
ARC
  8
WHITE
 10
176.708257
 20
547.777168
 30
0.000000
 40
95.293009
 50
13.820910
 51
18.493835
  6
CONTINUOUS
  0
ARC
  8
WHITE
 10
397.512247
 20
615.868449
 30
0.000000
 40
135.816891
 50
-176.120093
 51
-163.812131
  6
CONTINUOUS
  0
ARC
  8
WHITE
 10
297.499900
 20
610.787010
 30
0.000000
 40
35.730277
 50
169.052935
 51
186.603116
  6
CONTINUOUS
  0
ARC
  8
WHITE
 10
60.722922
 20
648.475640
 30
0.000000
 40
204.050610
 50
-8.710941
 51
2.042976
  6
CONTINUOUS
  0
ARC
  8
WHITE
 10
85.712960
 20
647.568504
 30
0.000000
 40
179.117814
 50
2.617944
 51
8.743560
  6
CONTINUOUS
  0
ARC
  8
WHITE
 10
-15.563437
 20
635.160779
 30
0.000000
 40
281.120808
 50
8.105263
 51
10.056772
  6
CONTINUOUS
  0
ARC
  8
WHITE
 10
295.248767
 20
689.361239
 30
0.000000
 40
34.392503
 50
-179.425513
 51
-171.455335
  6
CONTINUOUS
  0
ARC
  8
WHITE
 10
257.823332
 20
689.180108
 30
0.000000
 40
3.039073
 50
-3.087856
 51
87.589505
  6
CONTINUOUS
  0
LINE
  8
WHITE
 10
257.951151
 20
692.216492
 30
0.000000
 11
257.951097
 21
692.216699
 31
0.000000
  6
CONTINUOUS
  0
ARC
  8
WHITE
 10
523.099289
 20
797.747912
 30
0.000000
 40
74.664200
 50
92.049240
 51
111.802701
  6
CONTINUOUS
  0
ARC
  8
WHITE
 10
496.776279
 20
864.502106
 30
0.000000
 40
2.929744
 50
118.726951
 51
228.837971
  6
CONTINUOUS
  0
ARC
  8
WHITE
 10
496.794058
 20
864.540848
 30
0.000000
 40
2.970638
 50
-130.928361
 51
-78.348275
  6
CONTINUOUS
  0
ARC
  8
WHITE
 10
523.535179
 20
792.093273
 30
0.000000
 40
74.289401
 50
77.467170
 51
110.602520
  6
CONTINUOUS
  0
ARC
  8
WHITE
 10
521.549761
 20
784.618414
 30
0.000000
 40
82.017590
 50
54.739539
 51
77.246368
  6
CONTINUOUS
  0
ARC
  8
WHITE
 10
526.962616
 20
791.589394
 30
0.000000
 40
73.201791
 50
36.135263
 51
55.049090
  6
CONTINUOUS
  0
ARC
  8
WHITE
 10
532.081517
 20
795.203881
 30
0.000000
 40
66.936263
 50
28.464005
 51
36.220368
  6
CONTINUOUS
  0
ARC
  8
WHITE
 10
490.689162
 20
774.892588
 30
0.000000
 40
113.020971
 50
23.496536
 51
27.515020
  6
CONTINUOUS
  0
ARC
  8
WHITE
 10
596.835082
 20
821.511348
 30
0.000000
 40
2.942502
 50
-148.029114
 51
-13.071565
  6
CONTINUOUS
  0
ARC
  8
WHITE
 10
595.461050
 20
821.542475
 30
0.000000
 40
4.297131
 50
-9.329635
 51
31.158418
  6
CONTINUOUS
  0
ARC
  8
WHITE
 10
528.293791
 20
793.249107
 30
0.000000
 40
77.137618
 50
23.304280
 51
57.121581
  6
CONTINUOUS
  0
LINE
  8
WHITE
 10
570.168576
 20
858.031160
 30
0.000000
 11
570.168576
 21
858.032960
 31
0.000000
  6
CONTINUOUS
  0
ARC
  8
WHITE
 10
522.546260
 20
786.232068
 30
0.000000
 40
86.158302
 50
56.445465
 51
91.407853
  6
CONTINUOUS
  0
ARC
  8
WHITE
 10
268.607825
 20
691.965972
 30
0.000000
 40
13.084757
 50
92.128706
 51
107.902336
  6
CONTINUOUS
  0
ARC
  8
WHITE
 10
265.028007
 20
701.441717
 30
0.000000
 40
3.008177
 50
98.456479
 51
233.534684
  6
CONTINUOUS
  0
ARC
  8
WHITE
 10
265.099616
 20
701.579894
 30
0.000000
 40
3.161956
 50
-126.020734
 51
-63.762893
  6
CONTINUOUS
  0
ARC
  8
WHITE
 10
268.506948
 20
691.148757
 30
0.000000
 40
7.856288
 50
55.498877
 51
104.819746
  6
CONTINUOUS
  0
ARC
  8
WHITE
 10
265.103590
 20
686.816717
 30
0.000000
 40
13.358737
 50
-2.204747
 51
53.993285
  6
CONTINUOUS
  0
ARC
  8
WHITE
 10
287.319619
 20
685.554837
 30
0.000000
 40
8.898671
 50
175.178416
 51
194.945602
  6
CONTINUOUS
  0
ARC
  8
WHITE
 10
281.631388
 20
684.490694
 30
0.000000
 40
3.159054
 50
-157.068937
 51
-102.227689
  6
CONTINUOUS
  0
ARC
  8
WHITE
 10
197.386217
 20
451.995793
 30
0.000000
 40
244.157267
 50
64.395980
 51
69.982671
  6
CONTINUOUS
  0
ARC
  8
WHITE
 10
280.226041
 20
621.183607
 30
0.000000
 40
55.806851
 50
44.644981
 51
66.029429
  6
CONTINUOUS
  0
ARC
  8
WHITE
 10
308.518873
 20
649.774288
 30
0.000000
 40
15.592992
 50
9.486225
 51
42.955088
  6
CONTINUOUS
  0
ARC
  8
WHITE
 10
310.844419
 20
651.037132
 30
0.000000
 40
13.119485
 50
-31.598936
 51
5.717649
  6
CONTINUOUS
  0
ARC
  8
WHITE
 10
294.694316
 20
659.990616
 30
0.000000
 40
31.577551
 50
-44.614310
 51
-30.081590
  6
CONTINUOUS
  0
ARC
  8
WHITE
 10
359.713193
 20
595.613624
 30
0.000000
 40
59.920347
 50
135.230748
 51
149.591690
  6
CONTINUOUS
  0
ARC
  8
WHITE
 10
311.493635
 20
623.817695
 30
0.000000
 40
4.058955
 50
148.428042
 51
194.714928
  6
CONTINUOUS
  0
ARC
  8
WHITE
 10
310.305571
 20
623.732164
 30
0.000000
 40
2.896427
 50
-160.947697
 51
-35.639750
  6
CONTINUOUS
  0
ARC
  8
WHITE
 10
361.022429
 20
594.567649
 30
0.000000
 40
55.623276
 50
138.101017
 51
150.397465
  6
CONTINUOUS
  0
ARC
  8
WHITE
 10
382.358523
 20
575.118352
 30
0.000000
 40
84.493154
 50
134.406146
 51
137.946469
  6
CONTINUOUS
  0
ARC
  8
WHITE
 10
299.885990
 20
656.173354
 30
0.000000
 40
31.199390
 50
-41.548940
 51
-23.569264
  6
CONTINUOUS
  0
ARC
  8
WHITE
 10
311.984008
 20
650.900248
 30
0.000000
 40
18.002132
 50
-23.582863
 51
30.945864
  6
CONTINUOUS
  0
ARC
  8
WHITE
 10
299.069845
 20
642.825932
 30
0.000000
 40
33.231264
 50
31.435776
 51
53.591017
  6
CONTINUOUS
  0
ARC
  8
WHITE
 10
266.677440
 20
598.991750
 30
0.000000
 40
87.735414
 50
53.557143
 51
66.144677
  6
CONTINUOUS
  0
ARC
  8
WHITE
 10
182.373026
 20
412.080160
 30
0.000000
 40
292.778077
 50
65.849199
 51
69.621242
  6
CONTINUOUS
  0
ARC
  8
WHITE
 10
264.637201
 20
686.971680
 30
0.000000
 40
19.693207
 50
-1.274679
 51
38.564876
  6
CONTINUOUS
  0
ARC
  8
WHITE
 10
268.186533
 20
690.028338
 30
0.000000
 40
15.013501
 50
37.888025
 51
90.247041
  6
CONTINUOUS
  0
ARC
  8
WHITE
 10
505.926935
 20
665.650592
 30
0.000000
 40
255.368639
 50
-154.180545
 51
-144.762923
  6
CONTINUOUS
  0
ARC
  8
WHITE
 10
390.757193
 20
609.075621
 30
0.000000
 40
127.058016
 50
-155.878100
 51
-154.526187
  6
CONTINUOUS
  0
ARC
  8
WHITE
 10
271.163037
 20
555.882466
 30
0.000000
 40
3.845851
 50
19.237823
 51
63.800471
  6
CONTINUOUS
  0
LINE
  8
WHITE
 10
272.860974
 20
559.333202
 30
0.000000
 11
272.860866
 21
559.333112
 31
0.000000
  6
CONTINUOUS
  0
ARC
  8
WHITE
 10
271.800304
 20
556.546585
 30
0.000000
 40
2.981531
 50
69.162989
 51
198.307134
  6
CONTINUOUS
  0
ARC
  8
WHITE
 10
491.578043
 20
656.692466
 30
0.000000
 40
244.483409
 50
-155.578064
 51
-144.542861
  6
CONTINUOUS
  0
LINE
  8
WHITE
 10
292.434156
 20
514.869161
 30
0.000000
 11
292.435956
 21
514.869161
 31
0.000000
  6
CONTINUOUS
  0
ARC
  8
WHITE
 10
729.370359
 20
827.334380
 30
0.000000
 40
537.164952
 50
-144.430276
 51
-140.247555
  6
CONTINUOUS
  0
ARC
  8
WHITE
 10
1118.210448
 20
1146.292601
 30
0.000000
 40
1040.081323
 50
-140.436647
 51
-138.816477
  6
CONTINUOUS
  0
LINE
  8
WHITE
 10
335.440766
 20
461.427079
 30
0.000000
 11
339.164385
 21
457.359603
 31
0.000000
  6
CONTINUOUS
  0
ARC
  8
WHITE
 10
341.350529
 20
459.504311
 30
0.000000
 40
3.062515
 50
-135.548164
 51
59.131435
  6
CONTINUOUS
  0
ARC
  8
WHITE
 10
821.617259
 20
897.034200
 30
0.000000
 40
646.752173
 50
-144.156242
 51
-137.744435
  6
CONTINUOUS
  0
LINE
  8
WHITE
 10
297.349056
 20
518.311049
 30
0.000000
 11
297.349056
 21
518.312849
 31
0.000000
  6
CONTINUOUS
  0
ARC
  8
WHITE
 10
683.331502
 20
546.292807
 30
0.000000
 40
32.661431
 50
-145.819398
 51
-112.216376
  6
CONTINUOUS
  0
ARC
  8
WHITE
 10
678.815321
 20
535.401674
 30
0.000000
 40
20.871326
 50
-112.043660
 51
-66.031633
  6
CONTINUOUS
  0
ARC
  8
WHITE
 10
677.081533
 20
537.068602
 30
0.000000
 40
23.116640
 50
-63.782704
 51
-27.432660
  6
CONTINUOUS
  0
ARC
  8
WHITE
 10
665.018274
 20
544.702228
 30
0.000000
 40
37.360125
 50
-29.300364
 51
-19.460259
  6
CONTINUOUS
  0
ARC
  8
WHITE
 10
697.457575
 20
533.829545
 30
0.000000
 40
3.200337
 50
-29.459521
 51
78.242434
  6
CONTINUOUS
  0
ARC
  8
WHITE
 10
704.058003
 20
556.580925
 30
0.000000
 40
20.500136
 50
-138.387271
 51
-106.867455
  6
CONTINUOUS
  0
ARC
  8
WHITE
 10
696.104316
 20
549.489094
 30
0.000000
 40
9.843947
 50
-167.225138
 51
-138.505008
  6
CONTINUOUS
  0
ARC
  8
WHITE
 10
691.154197
 20
548.895513
 30
0.000000
 40
4.912252
 50
90.852165
 51
198.800851
  6
CONTINUOUS
  0
ARC
  8
WHITE
 10
690.905555
 20
541.456845
 30
0.000000
 40
12.351625
 50
51.627815
 51
89.185488
  6
CONTINUOUS
  0
ARC
  8
WHITE
 10
682.832722
 20
528.121068
 30
0.000000
 40
27.886373
 50
26.529863
 51
55.636256
  6
CONTINUOUS
  0
ARC
  8
WHITE
 10
763.952690
 20
565.432215
 30
0.000000
 40
61.423555
 50
-156.130537
 51
-153.652758
  6
CONTINUOUS
  0
ARC
  8
WHITE
 10
711.557689
 20
539.636744
 30
0.000000
 40
3.026140
 50
-151.047000
 51
37.831804
  6
CONTINUOUS
  0
ARC
  8
WHITE
 10
680.357783
 20
526.624105
 30
0.000000
 40
36.733722
 50
23.876716
 51
47.182650
  6
CONTINUOUS
  0
ARC
  8
WHITE
 10
689.144828
 20
536.649409
 30
0.000000
 40
23.410585
 50
46.281165
 51
82.850513
  6
CONTINUOUS
  0
LINE
  8
WHITE
 10
692.058474
 20
559.877972
 30
0.000000
 11
692.058717
 21
559.878035
 31
0.000000
  6
CONTINUOUS
  0
ARC
  8
WHITE
 10
691.119212
 20
549.197963
 30
0.000000
 40
10.721316
 50
84.972740
 51
175.760704
  6
CONTINUOUS
  0
ARC
  8
WHITE
 10
693.469970
 20
548.610988
 30
0.000000
 40
13.115493
 50
173.962326
 51
211.057629
  6
CONTINUOUS
  0
ARC
  8
WHITE
 10
699.716560
 20
551.823577
 30
0.000000
 40
20.129503
 50
-150.281860
 51
-126.114178
  6
CONTINUOUS
  0
LINE
  8
WHITE
 10
687.852306
 20
535.562078
 30
0.000000
 11
687.854106
 21
535.562078
 31
0.000000
  6
CONTINUOUS
  0
ARC
  8
WHITE
 10
704.861715
 20
559.082319
 30
0.000000
 40
29.025170
 50
-125.870886
 51
-112.543311
  6
CONTINUOUS
  0
ARC
  8
WHITE
 10
670.909396
 20
541.349077
 30
0.000000
 40
24.562205
 50
-39.047767
 51
-21.680716
  6
CONTINUOUS
  0
ARC
  8
WHITE
 10
678.821988
 20
534.798272
 30
0.000000
 40
14.290691
 50
-83.379916
 51
-38.635556
  6
CONTINUOUS
  0
ARC
  8
WHITE
 10
679.238792
 20
538.628324
 30
0.000000
 40
18.067423
 50
-121.471032
 51
-86.094146
  6
CONTINUOUS
  0
ARC
  8
WHITE
 10
685.291043
 20
548.055656
 30
0.000000
 40
29.268704
 50
-154.577110
 51
-121.941417
  6
CONTINUOUS
  0
ARC
  8
WHITE
 10
655.635660
 20
534.523576
 30
0.000000
 40
3.363014
 50
16.713256
 51
87.840460
  6
CONTINUOUS
  0
ARC
  8
WHITE
 10
655.869307
 20
534.844051
 30
0.000000
 40
3.042031
 50
92.014241
 51
209.018497
  6
CONTINUOUS
  0
ARC
  8
WHITE
 10
687.701342
 20
549.502030
 30
0.000000
 40
38.078930
 50
-154.932256
 51
-145.520846
  6
CONTINUOUS
  0
LINE
  8
WHITE
 10
656.311653
 20
527.945306
 30
0.000000
 11
656.311653
 21
527.943506
 31
0.000000
  6
CONTINUOUS
  0
ARC
  8
WHITE
 10
417.307995
 20
864.923604
 30
0.000000
 40
3.091604
 50
88.252558
 51
159.057550
  6
CONTINUOUS
  0
ARC
  8
WHITE
 10
347.025929
 20
872.544849
 30
0.000000
 40
67.708979
 50
-17.653444
 51
-5.522609
  6
CONTINUOUS
  0
ARC
  8
WHITE
 10
365.665315
 20
866.550541
 30
0.000000
 40
48.129564
 50
-68.695798
 51
-17.582654
  6
CONTINUOUS
  0
ARC
  8
WHITE
 10
395.780804
 20
778.365948
 30
0.000000
 40
45.146368
 50
106.244466
 51
124.548529
  6
CONTINUOUS
  0
ARC
  8
WHITE
 10
384.571322
 20
793.233665
 30
0.000000
 40
26.555772
 50
122.819835
 51
177.654157
  6
CONTINUOUS
  0
ARC
  8
WHITE
 10
389.395301
 20
794.551522
 30
0.000000
 40
31.358346
 50
-179.578119
 51
-144.782497
  6
CONTINUOUS
  0
ARC
  8
WHITE
 10
395.378841
 20
797.533320
 30
0.000000
 40
37.979814
 50
-146.313235
 51
-135.535306
  6
CONTINUOUS
  0
ARC
  8
WHITE
 10
370.384124
 20
773.024508
 30
0.000000
 40
2.973897
 50
-135.216702
 51
-14.781411
  6
CONTINUOUS
  0
ARC
  8
WHITE
 10
370.367270
 20
773.014180
 30
0.000000
 40
2.987593
 50
-14.507423
 51
37.938547
  6
CONTINUOUS
  0
ARC
  8
WHITE
 10
403.422529
 20
803.166333
 30
0.000000
 40
41.763485
 50
-151.383504
 51
-137.313026
  6
CONTINUOUS
  0
ARC
  8
WHITE
 10
384.333907
 20
793.367265
 30
0.000000
 40
20.320605
 50
123.139928
 51
210.140182
  6
CONTINUOUS
  0
LINE
  8
WHITE
 10
373.224924
 20
810.382478
 30
0.000000
 11
373.224924
 21
810.384278
 31
0.000000
  6
CONTINUOUS
  0
ARC
  8
WHITE
 10
396.128095
 20
777.303688
 30
0.000000
 40
40.235316
 50
110.216408
 51
124.696586
  6
CONTINUOUS
  0
ARC
  8
WHITE
 10
366.912999
 20
864.839504
 30
0.000000
 40
52.080725
 50
-72.903145
 51
-33.739486
  6
CONTINUOUS
  0
ARC
  8
WHITE
 10
361.198700
 20
868.918866
 30
0.000000
 40
59.098726
 50
-33.951280
 51
-16.698448
  6
CONTINUOUS
  0
ARC
  8
WHITE
 10
360.191612
 20
869.284036
 30
0.000000
 40
60.168302
 50
-16.755964
 51
-8.281289
  6
CONTINUOUS
  0
ARC
  8
WHITE
 10
347.524563
 20
869.757823
 30
0.000000
 40
72.784137
 50
-7.214076
 51
-3.715289
  6
CONTINUOUS
  0
ARC
  8
WHITE
 10
417.168016
 20
865.035680
 30
0.000000
 40
2.987724
 50
0.111870
 51
85.502200
  6
CONTINUOUS
  0
LINE
  8
WHITE
 10
417.402315
 20
868.014203
 30
0.000000
 11
417.402270
 21
868.013771
 31
0.000000
  6
CONTINUOUS
  0
ARC
  8
WHITE
 10
521.982962
 20
774.965158
 30
0.000000
 40
59.782697
 50
89.190976
 51
108.433257
  6
CONTINUOUS
  0
ARC
  8
WHITE
 10
517.948765
 20
788.172520
 30
0.000000
 40
45.978683
 50
108.868103
 51
130.762067
  6
CONTINUOUS
  0
ARC
  8
WHITE
 10
491.400707
 20
817.292902
 30
0.000000
 40
6.678736
 50
121.325909
 51
154.275690
  6
CONTINUOUS
  0
ARC
  8
WHITE
 10
488.077276
 20
819.130491
 30
0.000000
 40
2.894935
 50
158.494437
 51
305.146937
  6
CONTINUOUS
  0
ARC
  8
WHITE
 10
520.571708
 20
782.865128
 30
0.000000
 40
45.819748
 50
97.358792
 51
132.284154
  6
CONTINUOUS
  0
ARC
  8
WHITE
 10
521.434284
 20
773.814549
 30
0.000000
 40
54.907103
 50
75.185979
 51
97.041829
  6
CONTINUOUS
  0
ARC
  8
WHITE
 10
523.748037
 20
780.368259
 30
0.000000
 40
47.982929
 50
57.097338
 51
75.856089
  6
CONTINUOUS
  0
ARC
  8
WHITE
 10
531.259001
 20
790.305218
 30
0.000000
 40
35.571453
 50
-17.429206
 51
58.560478
  6
CONTINUOUS
  0
ARC
  8
WHITE
 10
567.852043
 20
778.133574
 30
0.000000
 40
3.057629
 50
150.254713
 51
265.837389
  6
CONTINUOUS
  0
ARC
  8
WHITE
 10
567.853524
 20
778.094398
 30
0.000000
 40
3.018667
 50
-94.244607
 51
-39.921878
  6
CONTINUOUS
  0
ARC
  8
WHITE
 10
550.242982
 20
785.408720
 30
0.000000
 40
21.968637
 50
-24.905594
 51
-10.469318
  6
CONTINUOUS
  0
ARC
  8
WHITE
 10
531.119763
 20
790.244880
 30
0.000000
 40
41.671960
 50
-12.230582
 51
44.975630
  6
CONTINUOUS
  0
ARC
  8
WHITE
 10
522.421302
 20
778.780285
 30
0.000000
 40
55.962965
 50
46.984784
 51
89.584635
  6
CONTINUOUS
  0
LINE
  8
WHITE
 10
522.827001
 20
834.741779
 30
0.000000
 11
522.827073
 21
834.741896
 31
0.000000
  6
CONTINUOUS
  0
ARC
  8
WHITE
 10
352.225033
 20
448.698889
 30
0.000000
 40
3.133692
 50
95.129709
 51
243.564219
  6
CONTINUOUS
  0
ARC
  8
WHITE
 10
523.071626
 20
634.043154
 30
0.000000
 40
255.083768
 50
-132.472465
 51
-118.404520
  6
CONTINUOUS
  0
ARC
  8
WHITE
 10
532.296768
 20
650.695966
 30
0.000000
 40
274.120174
 50
-118.444840
 51
-108.626602
  6
CONTINUOUS
  0
ARC
  8
WHITE
 10
1149.270839
 20
2608.684051
 30
0.000000
 40
2326.966727
 50
-107.623849
 51
-107.406997
  6
CONTINUOUS
  0
ARC
  8
WHITE
 10
455.513813
 20
392.798704
 30
0.000000
 40
5.100346
 50
-117.716024
 51
-71.356275
  6
CONTINUOUS
  0
ARC
  8
WHITE
 10
455.588605
 20
390.659104
 30
0.000000
 40
3.110146
 50
-59.986683
 51
87.715466
  6
CONTINUOUS
  0
ARC
  8
WHITE
 10
530.821842
 20
647.917629
 30
0.000000
 40
265.017087
 50
-119.434189
 51
-106.464003
  6
CONTINUOUS
  0
ARC
  8
WHITE
 10
539.862186
 20
659.872670
 30
0.000000
 40
279.878752
 50
-125.984038
 51
-119.843305
  6
CONTINUOUS
  0
ARC
  8
WHITE
 10
517.278784
 20
625.709697
 30
0.000000
 40
238.972403
 50
-130.011247
 51
-126.415306
  6
CONTINUOUS
  0
ARC
  8
WHITE
 10
432.451679
 20
528.184099
 30
0.000000
 40
109.760629
 50
-132.741965
 51
-128.827398
  6
CONTINUOUS
  0
LINE
  8
WHITE
 10
357.957386
 20
447.573950
 30
0.000000
 11
355.160666
 21
450.071425
 31
0.000000
  6
CONTINUOUS
  0
ARC
  8
WHITE
 10
351.357631
 20
446.908721
 30
0.000000
 40
4.946289
 50
39.747797
 51
83.181842
  6
CONTINUOUS
  0
ARC
  8
WHITE
 10
748.706447
 20
559.283815
 30
0.000000
 40
3.176165
 50
71.653714
 51
218.141676
  6
CONTINUOUS
  0
ARC
  8
WHITE
 10
675.076839
 20
528.765200
 30
0.000000
 40
76.649893
 50
-1.527665
 51
21.873833
  6
CONTINUOUS
  0
ARC
  8
WHITE
 10
654.584659
 20
529.232443
 30
0.000000
 40
97.147278
 50
-17.636876
 51
-1.480933
  6
CONTINUOUS
  0
ARC
  8
WHITE
 10
629.230210
 20
538.012597
 30
0.000000
 40
123.972099
 50
-40.108953
 51
-17.953682
  6
CONTINUOUS
  0
ARC
  8
WHITE
 10
3035.896050
 20
-1588.512282
 30
0.000000
 40
3087.628758
 50
138.481861
 51
138.648654
  6
CONTINUOUS
  0
ARC
  8
WHITE
 10
720.379314
 20
449.539431
 30
0.000000
 40
2.947123
 50
140.707734
 51
304.445518
  6
CONTINUOUS
  0
ARC
  8
WHITE
 10
630.515188
 20
537.260296
 30
0.000000
 40
128.472518
 50
-44.564861
 51
-16.382188
  6
CONTINUOUS
  0
ARC
  8
WHITE
 10
656.682337
 20
528.941058
 30
0.000000
 40
101.023115
 50
-16.041198
 51
1.880181
  6
CONTINUOUS
  0
ARC
  8
WHITE
 10
669.290414
 20
528.206102
 30
0.000000
 40
88.453392
 50
2.623965
 51
12.857978
  6
CONTINUOUS
  0
ARC
  8
WHITE
 10
632.161568
 20
515.760210
 30
0.000000
 40
127.479665
 50
14.598218
 51
18.148644
  6
CONTINUOUS
  0
ARC
  8
WHITE
 10
436.418581
 20
439.222619
 30
0.000000
 40
337.529843
 50
20.145192
 51
20.815661
  6
CONTINUOUS
  0
ARC
  8
WHITE
 10
747.389545
 20
558.313795
 30
0.000000
 40
4.607709
 50
10.684347
 51
59.816398
  6
CONTINUOUS
  0
LINE
  8
WHITE
 10
749.706174
 20
562.296785
 30
0.000000
 11
749.706174
 21
562.298540
 31
0.000000
  6
CONTINUOUS
  0
ARC
  8
WHITE
 10
518.623346
 20
787.647537
 30
0.000000
 40
28.878328
 50
-2.358704
 51
26.317363
  6
CONTINUOUS
  0
ARC
  8
WHITE
 10
527.386157
 20
786.273782
 30
0.000000
 40
20.091904
 50
-35.544351
 51
0.528288
  6
CONTINUOUS
  0
ARC
  8
WHITE
 10
537.058974
 20
779.166924
 30
0.000000
 40
8.091585
 50
-112.987987
 51
-34.415013
  6
CONTINUOUS
  0
ARC
  8
WHITE
 10
539.828192
 20
788.217023
 30
0.000000
 40
17.532169
 50
-125.589183
 51
-109.766939
  6
CONTINUOUS
  0
ARC
  8
WHITE
 10
598.698652
 20
877.576566
 30
0.000000
 40
124.529629
 50
-124.732450
 51
-123.688429
  6
CONTINUOUS
  0
ARC
  8
WHITE
 10
526.101819
 20
772.769542
 30
0.000000
 40
2.965173
 50
56.265567
 51
225.979990
  6
CONTINUOUS
  0
ARC
  8
WHITE
 10
538.183097
 20
786.124779
 30
0.000000
 40
20.972668
 50
-132.399575
 51
-90.363680
  6
CONTINUOUS
  0
ARC
  8
WHITE
 10
537.198048
 20
778.981886
 30
0.000000
 40
13.855569
 50
-86.474871
 51
-38.745493
  6
CONTINUOUS
  0
ARC
  8
WHITE
 10
527.141920
 20
786.323733
 30
0.000000
 40
26.299792
 50
-37.508853
 51
0.200725
  6
CONTINUOUS
  0
ARC
  8
WHITE
 10
518.590886
 20
787.715912
 30
0.000000
 40
34.874904
 50
-2.136327
 51
26.306734
  6
CONTINUOUS
  0
LINE
  8
WHITE
 10
549.853947
 20
803.171651
 30
0.000000
 11
549.855747
 21
803.171651
 31
0.000000
  6
CONTINUOUS
  0
ARC
  8
WHITE
 10
524.762050
 20
790.496952
 30
0.000000
 40
28.113016
 50
26.798109
 51
61.730112
  6
CONTINUOUS
  0
ARC
  8
WHITE
 10
523.499541
 20
786.912122
 30
0.000000
 40
31.873612
 50
62.783456
 51
93.596859
  6
CONTINUOUS
  0
ARC
  8
WHITE
 10
522.913328
 20
785.476353
 30
0.000000
 40
33.276626
 50
92.434335
 51
139.157887
  6
CONTINUOUS
  0
ARC
  8
WHITE
 10
526.973714
 20
782.035464
 30
0.000000
 40
38.598664
 50
139.235544
 51
154.331911
  6
CONTINUOUS
  0
ARC
  8
WHITE
 10
507.956592
 20
790.749134
 30
0.000000
 40
17.687954
 50
153.089199
 51
160.281159
  6
CONTINUOUS
  0
ARC
  8
WHITE
 10
494.102342
 20
795.793919
 30
0.000000
 40
2.944929
 50
161.730104
 51
329.225041
  6
CONTINUOUS
  0
ARC
  8
WHITE
 10
526.920698
 20
781.583090
 30
0.000000
 40
32.844514
 50
130.919008
 51
157.244946
  6
CONTINUOUS
  0
ARC
  8
WHITE
 10
523.193768
 20
784.699855
 30
0.000000
 40
28.058963
 50
83.141372
 51
129.336788
  6
CONTINUOUS
  0
ARC
  8
WHITE
 10
524.784809
 20
790.569672
 30
0.000000
 40
22.058657
 50
26.611331
 51
85.424290
  6
CONTINUOUS
  0
LINE
  8
WHITE
 10
544.506696
 20
800.450537
 30
0.000000
 11
544.508496
 21
800.450537
 31
0.000000
  6
CONTINUOUS
  0
ARC
  8
WHITE
 10
483.511918
 20
856.988239
 30
0.000000
 40
3.932555
 50
82.165508
 51
129.604265
  6
CONTINUOUS
  0
ARC
  8
WHITE
 10
525.955026
 20
789.013562
 30
0.000000
 40
84.036634
 50
122.336196
 51
139.047540
  6
CONTINUOUS
  0
ARC
  8
WHITE
 10
544.019905
 20
773.062342
 30
0.000000
 40
108.135348
 50
138.937910
 51
151.926838
  6
CONTINUOUS
  0
LINE
  8
WHITE
 10
448.606962
 20
823.950689
 30
0.000000
 11
448.605162
 21
823.950689
 31
0.000000
  6
CONTINUOUS
  0
ARC
  8
WHITE
 10
595.190976
 20
747.720817
 30
0.000000
 40
165.222257
 50
152.523953
 51
161.469406
  6
CONTINUOUS
  0
ARC
  8
WHITE
 10
685.889029
 20
720.973467
 30
0.000000
 40
259.741691
 50
162.233594
 51
172.191868
  6
CONTINUOUS
  0
ARC
  8
WHITE
 10
432.956015
 20
754.697084
 30
0.000000
 40
4.670137
 50
160.435199
 51
211.993566
  6
CONTINUOUS
  0
ARC
  8
WHITE
 10
431.232187
 20
754.067456
 30
0.000000
 40
2.899475
 50
-140.488980
 51
-59.606096
  6
CONTINUOUS
  0
ARC
  8
WHITE
 10
430.538454
 20
754.795209
 30
0.000000
 40
3.885025
 50
-56.209284
 51
1.965559
  6
CONTINUOUS
  0
ARC
  8
WHITE
 10
711.325797
 20
716.208510
 30
0.000000
 40
279.598631
 50
165.731806
 51
172.039866
  6
CONTINUOUS
  0
ARC
  8
WHITE
 10
586.166221
 20
750.402243
 30
0.000000
 40
149.889991
 50
148.957131
 51
166.607957
  6
CONTINUOUS
  0
ARC
  8
WHITE
 10
534.672686
 20
780.440858
 30
0.000000
 40
90.284683
 50
133.784765
 51
148.438257
  6
CONTINUOUS
  0
ARC
  8
WHITE
 10
522.503399
 20
793.131943
 30
0.000000
 40
72.701875
 50
124.683208
 51
133.781664
  6
CONTINUOUS
  0
ARC
  8
WHITE
 10
462.237114
 20
884.148802
 30
0.000000
 40
36.504567
 50
-58.826120
 51
-49.789279
  6
CONTINUOUS
  0
ARC
  8
WHITE
 10
483.218251
 20
857.927263
 30
0.000000
 40
3.071034
 50
-32.633476
 51
74.325228
  6
CONTINUOUS
  0
ARC
  8
WHITE
 10
534.719309
 20
780.703492
 30
0.000000
 40
44.319014
 50
-128.434185
 51
-71.881440
  6
CONTINUOUS
  0
ARC
  8
WHITE
 10
529.787514
 20
773.452871
 30
0.000000
 40
35.579586
 50
-164.687345
 51
-129.471165
  6
CONTINUOUS
  0
ARC
  8
WHITE
 10
539.371463
 20
777.236569
 30
0.000000
 40
45.836165
 50
-176.954688
 51
-163.289210
  6
CONTINUOUS
  0
ARC
  8
WHITE
 10
525.440816
 20
777.178998
 30
0.000000
 40
31.929428
 50
174.462934
 51
184.270271
  6
CONTINUOUS
  0
ARC
  8
WHITE
 10
488.392354
 20
780.560743
 30
0.000000
 40
5.276602
 50
-3.268917
 51
26.353820
  6
CONTINUOUS
  0
ARC
  8
WHITE
 10
490.497132
 20
781.187719
 30
0.000000
 40
3.134467
 50
33.179418
 51
83.134930
  6
CONTINUOUS
  0
ARC
  8
WHITE
 10
490.724388
 20
781.279267
 30
0.000000
 40
3.024041
 50
87.205915
 51
163.244888
  6
CONTINUOUS
  0
ARC
  8
WHITE
 10
537.567526
 20
776.957031
 30
0.000000
 40
50.009255
 50
174.038451
 51
210.465698
  6
CONTINUOUS
  0
ARC
  8
WHITE
 10
528.632621
 20
772.039998
 30
0.000000
 40
39.815992
 50
-149.114041
 51
-129.089271
  6
CONTINUOUS
  0
ARC
  8
WHITE
 10
535.654450
 20
783.080140
 30
0.000000
 40
52.834048
 50
-127.450390
 51
-99.149811
  6
CONTINUOUS
  0
ARC
  8
WHITE
 10
534.238274
 20
785.877517
 30
0.000000
 40
55.401299
 50
-97.243451
 51
-50.013712
  6
CONTINUOUS
  0
ARC
  8
WHITE
 10
533.803450
 20
787.099050
 30
0.000000
 40
56.618457
 50
-50.470923
 51
-41.805416
  6
CONTINUOUS
  0
ARC
  8
WHITE
 10
572.822186
 20
753.544380
 30
0.000000
 40
5.261249
 50
-52.739116
 51
-9.179097
  6
CONTINUOUS
  0
ARC
  8
WHITE
 10
575.037200
 20
752.838855
 30
0.000000
 40
2.981864
 50
-2.570930
 51
147.522694
  6
CONTINUOUS
  0
ARC
  8
WHITE
 10
533.077666
 20
788.065063
 30
0.000000
 40
51.831215
 50
-72.687425
 51
-40.446769
  6
CONTINUOUS
  0
ARC
  8
WHITE
 10
312.091763
 20
609.829353
 30
0.000000
 40
3.057231
 50
46.385548
 51
209.433499
  6
CONTINUOUS
  0
ARC
  8
WHITE
 10
314.237759
 20
612.307585
 30
0.000000
 40
6.242433
 50
-140.381905
 51
-65.773913
  6
CONTINUOUS
  0
ARC
  8
WHITE
 10
311.267475
 20
616.605811
 30
0.000000
 40
11.420114
 50
-61.027457
 51
-22.802301
  6
CONTINUOUS
  0
ARC
  8
WHITE
 10
279.338430
 20
633.608628
 30
0.000000
 40
47.557930
 50
-26.780982
 51
-18.174354
  6
CONTINUOUS
  0
ARC
  8
WHITE
 10
330.697023
 20
617.884882
 30
0.000000
 40
6.237065
 50
141.036136
 51
171.796461
  6
CONTINUOUS
  0
ARC
  8
WHITE
 10
342.569551
 20
608.821422
 30
0.000000
 40
21.171977
 50
107.044462
 51
142.168964
  6
CONTINUOUS
  0
ARC
  8
WHITE
 10
343.703357
 20
600.589272
 30
0.000000
 40
29.404932
 50
82.333954
 51
104.454110
  6
CONTINUOUS
  0
ARC
  8
WHITE
 10
332.019330
 20
538.622171
 30
0.000000
 40
92.436233
 50
67.963956
 51
80.279821
  6
CONTINUOUS
  0
ARC
  8
WHITE
 10
471.384407
 20
877.697800
 30
0.000000
 40
274.164655
 50
-112.447005
 51
-109.332497
  6
CONTINUOUS
  0
ARC
  8
WHITE
 10
391.180259
 20
643.404765
 30
0.000000
 40
26.597657
 50
-113.387696
 51
-89.303802
  6
CONTINUOUS
  0
ARC
  8
WHITE
 10
391.005568
 20
639.221505
 30
0.000000
 40
22.417963
 50
-88.727442
 51
-83.371963
  6
CONTINUOUS
  0
ARC
  8
WHITE
 10
392.701649
 20
619.813128
 30
0.000000
 40
2.995483
 50
-72.686141
 51
2.476002
  6
CONTINUOUS
  0
ARC
  8
WHITE
 10
383.036524
 20
616.215910
 30
0.000000
 40
13.194996
 50
16.405122
 51
46.207726
  6
CONTINUOUS
  0
ARC
  8
WHITE
 10
345.264662
 20
575.417916
 30
0.000000
 40
68.791848
 50
47.014261
 51
55.605424
  6
CONTINUOUS
  0
LINE
  8
WHITE
 10
384.124413
 20
632.182678
 30
0.000000
 11
375.545903
 21
637.910570
 31
0.000000
  6
CONTINUOUS
  0
ARC
  8
WHITE
 10
373.323811
 20
635.063315
 30
0.000000
 40
3.611724
 50
52.030347
 51
96.601412
  6
CONTINUOUS
  0
LINE
  8
WHITE
 10
372.908601
 20
638.651093
 30
0.000000
 11
372.908520
 21
638.650886
 31
0.000000
  6
CONTINUOUS
  0
ARC
  8
WHITE
 10
373.569560
 20
635.659282
 30
0.000000
 40
3.063767
 50
102.460149
 51
211.916072
  6
CONTINUOUS
  0
ARC
  8
WHITE
 10
384.846363
 20
648.881673
 30
0.000000
 40
20.319230
 50
-133.076071
 51
-120.634968
  6
CONTINUOUS
  0
ARC
  8
WHITE
 10
297.727250
 20
510.559529
 30
0.000000
 40
143.160429
 50
52.263915
 51
57.573491
  6
CONTINUOUS
  0
ARC
  8
WHITE
 10
441.027141
 20
797.386087
 30
0.000000
 40
182.320772
 50
-112.449076
 51
-107.782670
  6
CONTINUOUS
  0
ARC
  8
WHITE
 10
322.336432
 20
510.291199
 30
0.000000
 40
128.341368
 50
67.521650
 51
72.494615
  6
CONTINUOUS
  0
ARC
  8
WHITE
 10
340.778203
 20
574.933793
 30
0.000000
 40
61.173433
 50
70.755538
 51
86.397893
  6
CONTINUOUS
  0
ARC
  8
WHITE
 10
343.018388
 20
607.196535
 30
0.000000
 40
28.834440
 50
86.812757
 51
120.012925
  6
CONTINUOUS
  0
ARC
  8
WHITE
 10
342.701381
 20
609.050949
 30
0.000000
 40
27.077991
 50
121.394922
 51
148.250074
  6
CONTINUOUS
  0
ARC
  8
WHITE
 10
248.605119
 20
645.242988
 30
0.000000
 40
74.380845
 50
-22.052024
 51
-17.158266
  6
CONTINUOUS
  0
ARC
  8
WHITE
 10
223.151829
 20
659.690588
 30
0.000000
 40
103.467454
 50
-25.934740
 51
-24.175761
  6
CONTINUOUS
  0
ARC
  8
WHITE
 10
310.831033
 20
616.884700
 30
0.000000
 40
5.899023
 50
-55.164957
 51
-24.489547
  6
CONTINUOUS
  0
ARC
  8
WHITE
 10
423.341126
 20
665.110114
 30
0.000000
 40
34.025800
 50
70.490504
 51
88.731403
  6
CONTINUOUS
  0
ARC
  8
WHITE
 10
435.532916
 20
700.146131
 30
0.000000
 40
3.077373
 50
-105.616663
 51
-17.329360
  6
CONTINUOUS
  0
ARC
  8
WHITE
 10
435.215967
 20
700.148890
 30
0.000000
 40
3.382002
 50
-15.774394
 51
21.910253
  6
CONTINUOUS
  0
ARC
  8
WHITE
 10
417.897186
 20
695.763278
 30
0.000000
 40
21.221780
 50
15.433735
 51
61.952574
  6
CONTINUOUS
  0
ARC
  8
WHITE
 10
393.613658
 20
653.987047
 30
0.000000
 40
69.532928
 50
60.478786
 51
71.126747
  6
CONTINUOUS
  0
ARC
  8
WHITE
 10
507.896741
 20
974.829427
 30
0.000000
 40
271.062609
 50
-111.842188
 51
-109.793639
  6
CONTINUOUS
  0
ARC
  8
WHITE
 10
420.205270
 20
755.864148
 30
0.000000
 40
35.190716
 50
-123.790782
 51
-111.956243
  6
CONTINUOUS
  0
ARC
  8
WHITE
 10
405.923644
 20
735.472770
 30
0.000000
 40
10.314608
 50
178.581794
 51
239.144443
  6
CONTINUOUS
  0
ARC
  8
WHITE
 10
422.492000
 20
734.237989
 30
0.000000
 40
26.921074
 50
153.622377
 51
176.827090
  6
CONTINUOUS
  0
LINE
  8
WHITE
 10
398.373804
 20
746.198627
 30
0.000000
 11
398.387726
 21
746.107804
 31
0.000000
  6
CONTINUOUS
  0
ARC
  8
WHITE
 10
370.765865
 20
754.679320
 30
0.000000
 40
28.921240
 50
-17.239972
 51
3.105240
  6
CONTINUOUS
  0
ARC
  8
WHITE
 10
349.981236
 20
754.167740
 30
0.000000
 40
49.706869
 50
2.396238
 51
8.322478
  6
CONTINUOUS
  0
ARC
  8
WHITE
 10
396.059131
 20
761.215882
 30
0.000000
 40
3.108976
 50
2.703619
 51
97.413493
  6
CONTINUOUS
  0
LINE
  8
WHITE
 10
395.657982
 20
764.298869
 30
0.000000
 11
395.658126
 21
764.299319
 31
0.000000
  6
CONTINUOUS
  0
ARC
  8
WHITE
 10
396.184258
 20
761.354882
 30
0.000000
 40
2.991075
 50
100.131070
 51
181.413107
  6
CONTINUOUS
  0
ARC
  8
WHITE
 10
358.149564
 20
755.465168
 30
0.000000
 40
35.523856
 50
-11.171282
 51
9.422861
  6
CONTINUOUS
  0
LINE
  8
WHITE
 10
393.000327
 20
748.582682
 30
0.000000
 11
393.022001
 21
749.076826
 31
0.000000
  6
CONTINUOUS
  0
ARC
  8
WHITE
 10
458.513292
 20
721.911719
 30
0.000000
 40
70.901708
 50
157.471834
 51
164.366910
  6
CONTINUOUS
  0
ARC
  8
WHITE
 10
407.331238
 20
736.080793
 30
0.000000
 40
17.795411
 50
163.892266
 51
211.956444
  6
CONTINUOUS
  0
ARC
  8
WHITE
 10
410.531721
 20
739.954260
 30
0.000000
 40
22.617126
 50
-144.005918
 51
-115.634361
  6
CONTINUOUS
  0
ARC
  8
WHITE
 10
465.993040
 20
858.686721
 30
0.000000
 40
153.663228
 50
-115.125627
 51
-108.859339
  6
CONTINUOUS
  0
ARC
  8
WHITE
 10
398.690645
 20
664.094850
 30
0.000000
 40
52.243149
 50
61.058478
 51
70.276161
  6
CONTINUOUS
  0
ARC
  8
WHITE
 10
414.640624
 20
691.935405
 30
0.000000
 40
20.166872
 50
38.574949
 51
62.438074
  6
CONTINUOUS
  0
ARC
  8
WHITE
 10
425.032180
 20
680.825963
 30
0.000000
 40
24.286453
 50
77.214179
 51
95.053913
  6
CONTINUOUS
  0
ARC
  8
WHITE
 10
423.658818
 20
699.318238
 30
0.000000
 40
5.751014
 50
97.655267
 51
163.573918
  6
CONTINUOUS
  0
ARC
  8
WHITE
 10
427.571652
 20
699.558609
 30
0.000000
 40
9.530427
 50
171.638544
 51
206.444712
  6
CONTINUOUS
  0
ARC
  8
WHITE
 10
471.434160
 20
719.981526
 30
0.000000
 40
57.911818
 50
-154.789625
 51
-144.765663
  6
CONTINUOUS
  0
ARC
  8
WHITE
 10
-5781.250020
 20
-3473.667136
 30
0.000000
 40
7470.899854
 50
33.809718
 51
33.838856
  6
CONTINUOUS
  0
ARC
  8
WHITE
 10
430.776577
 20
685.589748
 30
0.000000
 40
5.025001
 50
-154.350287
 51
-116.442433
  6
CONTINUOUS
  0
ARC
  8
WHITE
 10
429.605084
 20
683.798934
 30
0.000000
 40
2.910759
 50
-111.485947
 51
3.022854
  6
CONTINUOUS
  0
ARC
  8
WHITE
 10
423.439588
 20
681.709252
 30
0.000000
 40
9.345414
 50
13.888309
 51
40.543859
  6
CONTINUOUS
  0
ARC
  8
WHITE
 10
470.284983
 20
717.875129
 30
0.000000
 40
49.850150
 50
-157.909032
 51
-142.869631
  6
CONTINUOUS
  0
ARC
  8
WHITE
 10
360.121727
 20
829.242091
 30
0.000000
 40
92.150688
 50
129.514574
 51
140.766526
  6
CONTINUOUS
  0
ARC
  8
WHITE
 10
501.739916
 20
718.249433
 30
0.000000
 40
272.069265
 50
141.524428
 51
148.193800
  6
CONTINUOUS
  0
ARC
  8
WHITE
 10
386.646035
 20
789.085663
 30
0.000000
 40
136.925080
 50
148.000973
 51
157.939977
  6
CONTINUOUS
  0
ARC
  8
WHITE
 10
332.278908
 20
810.725275
 30
0.000000
 40
78.411608
 50
157.674229
 51
170.691110
  6
CONTINUOUS
  0
ARC
  8
WHITE
 10
305.560039
 20
815.442428
 30
0.000000
 40
51.282659
 50
171.063236
 51
185.990383
  6
CONTINUOUS
  0
ARC
  8
WHITE
 10
281.969645
 20
812.315724
 30
0.000000
 40
27.502402
 50
-175.359097
 51
-164.921210
  6
CONTINUOUS
  0
ARC
  8
WHITE
 10
259.223321
 20
805.117754
 30
0.000000
 40
3.809389
 50
179.348722
 51
245.351051
  6
CONTINUOUS
  0
ARC
  8
WHITE
 10
258.687940
 20
804.435512
 30
0.000000
 40
2.972902
 50
-110.751654
 51
-36.339474
  6
CONTINUOUS
  0
LINE
  8
WHITE
 10
261.082673
 20
802.673864
 30
0.000000
 11
265.228809
 21
807.946220
 31
0.000000
  6
CONTINUOUS
  0
ARC
  8
WHITE
 10
214.470666
 20
850.116422
 30
0.000000
 40
65.990265
 50
-39.720027
 51
-35.348879
  6
CONTINUOUS
  0
ARC
  8
WHITE
 10
266.189444
 20
814.010210
 30
0.000000
 40
2.954742
 50
-44.546026
 51
102.077677
  6
CONTINUOUS
  0
ARC
  8
WHITE
 10
267.661989
 20
811.531798
 30
0.000000
 40
5.760567
 50
111.281366
 51
148.729487
  6
CONTINUOUS
  0
ARC
  8
WHITE
 10
155.954219
 20
895.008480
 30
0.000000
 40
133.719524
 50
-38.623845
 51
-37.006477
  6
CONTINUOUS
  0
ARC
  8
WHITE
 10
302.561134
 20
815.425690
 30
0.000000
 40
42.315868
 50
175.798882
 51
185.268502
  6
CONTINUOUS
  0
LINE
  8
WHITE
 10
260.358966
 20
818.525651
 30
0.000000
 11
260.360766
 21
818.525651
 31
0.000000
  6
CONTINUOUS
  0
ARC
  8
WHITE
 10
333.145571
 20
811.039136
 30
0.000000
 40
73.168816
 50
154.509782
 51
174.127311
  6
CONTINUOUS
  0
ARC
  8
WHITE
 10
436.466340
 20
762.217831
 30
0.000000
 40
187.443222
 50
143.145393
 51
154.630777
  6
CONTINUOUS
  0
ARC
  8
WHITE
 10
410.073467
 20
787.168532
 30
0.000000
 40
151.416063
 50
137.601805
 51
144.710068
  6
CONTINUOUS
  0
ARC
  8
WHITE
 10
369.473685
 20
818.270460
 30
0.000000
 40
100.559332
 50
129.737838
 51
135.089713
  6
CONTINUOUS
  0
ARC
  8
WHITE
 10
303.328692
 20
897.957904
 30
0.000000
 40
3.004434
 50
-51.754375
 51
127.767558
  6
CONTINUOUS
  0
ARC
  8
WHITE
 10
403.783815
 20
794.449349
 30
0.000000
 40
18.542671
 50
147.099599
 51
178.303683
  6
CONTINUOUS
  0
ARC
  8
WHITE
 10
419.158083
 20
794.332150
 30
0.000000
 40
33.915355
 50
178.874637
 51
193.802433
  6
CONTINUOUS
  0
ARC
  8
WHITE
 10
469.378113
 20
805.041640
 30
0.000000
 40
85.254913
 50
-167.260132
 51
-162.063995
  6
CONTINUOUS
  0
ARC
  8
WHITE
 10
-2109.857867
 20
-0.294440
 30
0.000000
 40
2616.790636
 50
17.246892
 51
17.320954
  6
CONTINUOUS
  0
ARC
  8
WHITE
 10
392.312555
 20
775.939484
 30
0.000000
 40
3.065014
 50
-172.835189
 51
-54.272834
  6
CONTINUOUS
  0
ARC
  8
WHITE
 10
392.554703
 20
775.705605
 30
0.000000
 40
2.734412
 50
-55.530350
 51
2.609136
  6
CONTINUOUS
  0
ARC
  8
WHITE
 10
-46.569833
 20
657.455883
 30
0.000000
 40
457.437729
 50
14.997485
 51
16.300153
  6
CONTINUOUS
  0
ARC
  8
WHITE
 10
429.493138
 20
795.727977
 30
0.000000
 40
38.309024
 50
-176.717129
 51
-165.049121
  6
CONTINUOUS
  0
ARC
  8
WHITE
 10
403.430260
 20
794.479629
 30
0.000000
 40
12.219908
 50
129.511991
 51
184.437338
  6
CONTINUOUS
  0
ARC
  8
WHITE
 10
414.671170
 20
777.703141
 30
0.000000
 40
32.376669
 50
105.255561
 51
125.967571
  6
CONTINUOUS
  0
LINE
  8
WHITE
 10
406.152063
 20
808.938914
 30
0.000000
 11
406.146663
 21
808.938914
 31
0.000000
  6
CONTINUOUS
  0
ARC
  8
WHITE
 10
402.483264
 20
821.982141
 30
0.000000
 40
13.547924
 50
-74.311749
 51
-52.773144
  6
CONTINUOUS
  0
ARC
  8
WHITE
 10
376.817150
 20
862.364793
 30
0.000000
 40
61.359873
 50
-56.505094
 51
-39.842321
  6
CONTINUOUS
  0
ARC
  8
WHITE
 10
329.926493
 20
902.501872
 30
0.000000
 40
123.080361
 50
-40.203519
 51
-31.894361
  6
CONTINUOUS
  0
LINE
  8
WHITE
 10
434.424636
 20
837.471776
 30
0.000000
 11
434.422836
 21
837.466376
 31
0.000000
  6
CONTINUOUS
  0
ARC
  8
WHITE
 10
-1592.942305
 20
2071.891326
 30
0.000000
 40
2373.607881
 50
-31.336458
 51
-30.786780
  6
CONTINUOUS
  0
ARC
  8
WHITE
 10
448.919283
 20
858.178129
 30
0.000000
 40
3.000005
 50
-156.311064
 51
-112.418325
  6
CONTINUOUS
  0
ARC
  8
WHITE
 10
447.575553
 20
858.599397
 30
0.000000
 40
3.200776
 50
-86.424191
 51
-21.868762
  6
CONTINUOUS
  0
ARC
  8
WHITE
 10
442.933774
 20
859.136309
 30
0.000000
 40
7.806146
 50
-12.797769
 51
7.187100
  6
CONTINUOUS
  0
LINE
  8
WHITE
 10
450.678586
 20
860.112935
 30
0.000000
 11
450.523108
 21
864.198280
 31
0.000000
  6
CONTINUOUS
  0
ARC
  8
WHITE
 10
447.386076
 20
864.338849
 30
0.000000
 40
3.140180
 50
-2.565674
 51
71.955225
  6
CONTINUOUS
  0
LINE
  8
WHITE
 10
448.358778
 20
867.324578
 30
0.000000
 11
448.359111
 21
867.324713
 31
0.000000
  6
CONTINUOUS
  0
ARC
  8
WHITE
 10
447.578964
 20
864.155762
 30
0.000000
 40
3.263569
 50
76.169682
 51
125.159296
  6
CONTINUOUS
  0
ARC
  8
WHITE
 10
481.017565
 20
837.826216
 30
0.000000
 40
45.697072
 50
140.612388
 51
147.408247
  6
CONTINUOUS
  0
ARC
  8
WHITE
 10
1236.411546
 20
369.760944
 30
0.000000
 40
934.346318
 50
148.176853
 51
149.425368
  6
CONTINUOUS
  0
ARC
  8
WHITE
 10
298.166172
 20
923.309979
 30
0.000000
 40
155.022098
 50
-35.974328
 51
-30.330508
  6
CONTINUOUS
  0
ARC
  8
WHITE
 10
371.238382
 20
869.105972
 30
0.000000
 40
64.052462
 50
-55.614415
 51
-35.131702
  6
CONTINUOUS
  0
ARC
  8
WHITE
 10
398.870869
 20
828.319626
 30
0.000000
 40
14.789392
 50
-76.883089
 51
-54.720983
  6
CONTINUOUS
  0
ARC
  8
WHITE
 10
409.155412
 20
788.432940
 30
0.000000
 40
26.408187
 50
105.209701
 51
142.461875
  6
CONTINUOUS
  0
LINE
  8
WHITE
 10
388.215090
 20
804.523163
 30
0.000000
 11
388.215090
 21
804.521363
 31
0.000000
  6
CONTINUOUS
  0
ARC
  8
WHITE
 10
503.282429
 20
961.141148
 30
0.000000
 40
3.038564
 50
24.789223
 51
186.395077
  6
CONTINUOUS
  0
ARC
  8
WHITE
 10
511.130898
 20
965.087992
 30
0.000000
 40
11.682460
 50
-158.480738
 51
-121.702393
  6
CONTINUOUS
  0
ARC
  8
WHITE
 10
510.203966
 20
963.734666
 30
0.000000
 40
10.044255
 50
-121.260641
 51
-46.288528
  6
CONTINUOUS
  0
ARC
  8
WHITE
 10
500.690432
 20
977.668847
 30
0.000000
 40
26.831919
 50
-52.175904
 51
-31.157677
  6
CONTINUOUS
  0
ARC
  8
WHITE
 10
467.462229
 20
999.028804
 30
0.000000
 40
66.327280
 50
-32.096366
 51
-6.589214
  6
CONTINUOUS
  0
ARC
  8
WHITE
 10
506.644803
 20
981.940462
 30
0.000000
 40
28.338311
 50
-11.497519
 51
19.538086
  6
CONTINUOUS
  0
ARC
  8
WHITE
 10
438.170560
 20
993.671304
 30
0.000000
 40
97.800466
 50
-18.110081
 51
-10.235967
  6
CONTINUOUS
  0
ARC
  8
WHITE
 10
-426.414232
 20
1269.160299
 30
0.000000
 40
1005.212393
 50
-18.386673
 51
-17.716266
  6
CONTINUOUS
  0
LINE
  8
WHITE
 10
527.481470
 20
952.087840
 30
0.000000
 11
525.978638
 21
947.166391
 31
0.000000
  6
CONTINUOUS
  0
ARC
  8
WHITE
 10
532.406925
 20
944.572915
 30
0.000000
 40
6.931738
 50
158.028511
 51
177.954627
  6
CONTINUOUS
  0
ARC
  8
WHITE
 10
528.442648
 20
944.967921
 30
0.000000
 40
2.966720
 50
-177.148133
 51
-87.315638
  6
CONTINUOUS
  0
ARC
  8
WHITE
 10
528.288692
 20
945.260969
 30
0.000000
 40
3.269658
 50
-84.860504
 51
-8.479451
  6
CONTINUOUS
  0
ARC
  8
WHITE
 10
1258.151059
 20
721.301033
 30
0.000000
 40
760.217887
 50
161.666226
 51
162.904487
  6
CONTINUOUS
  0
ARC
  8
WHITE
 10
389.217747
 20
1007.293097
 30
0.000000
 40
154.579023
 50
-17.648197
 51
-13.081497
  6
CONTINUOUS
  0
ARC
  8
WHITE
 10
500.077104
 20
981.852421
 30
0.000000
 40
40.839589
 50
-13.517929
 51
12.402273
  6
CONTINUOUS
  0
ARC
  8
WHITE
 10
514.953639
 20
983.830420
 30
0.000000
 40
25.916200
 50
15.196196
 51
35.620142
  6
CONTINUOUS
  0
ARC
  8
WHITE
 10
512.017847
 20
981.604945
 30
0.000000
 40
29.598996
 50
35.812262
 51
44.751288
  6
CONTINUOUS
  0
ARC
  8
WHITE
 10
530.312591
 20
1000.540743
 30
0.000000
 40
3.324056
 50
34.920146
 51
114.467368
  6
CONTINUOUS
  0
LINE
  8
WHITE
 10
528.935850
 20
1003.566290
 30
0.000000
 11
528.935472
 21
1003.565723
 31
0.000000
  6
CONTINUOUS
  0
ARC
  8
WHITE
 10
530.417119
 20
1000.853627
 30
0.000000
 40
3.090428
 50
118.648246
 51
183.012167
  6
CONTINUOUS
  0
ARC
  8
WHITE
 10
476.054265
 20
996.473225
 30
0.000000
 40
51.449890
 50
-24.293891
 51
4.702547
  6
CONTINUOUS
  0
ARC
  8
WHITE
 10
484.006434
 20
990.543888
 30
0.000000
 40
41.816894
 50
-39.210181
 51
-21.370599
  6
CONTINUOUS
  0
ARC
  8
WHITE
 10
506.030790
 20
971.545697
 30
0.000000
 40
12.766608
 50
-64.857874
 51
-35.629442
  6
CONTINUOUS
  0
ARC
  8
WHITE
 10
510.027149
 20
963.179524
 30
0.000000
 40
3.495732
 50
-119.239439
 51
-65.894384
  6
CONTINUOUS
  0
ARC
  8
WHITE
 10
512.520128
 20
966.594821
 30
0.000000
 40
7.710288
 50
-147.174065
 51
-123.010471
  6
CONTINUOUS
  0
ARC
  8
WHITE
 10
378.517213
 20
760.779464
 30
0.000000
 40
3.092942
 50
105.517102
 51
161.409588
  6
CONTINUOUS
  0
ARC
  8
WHITE
 10
381.221370
 20
760.535282
 30
0.000000
 40
5.768424
 50
167.686130
 51
197.190956
  6
CONTINUOUS
  0
ARC
  8
WHITE
 10
355.719914
 20
755.062122
 30
0.000000
 40
20.342796
 50
-22.266445
 51
10.675012
  6
CONTINUOUS
  0
ARC
  8
WHITE
 10
350.738012
 20
758.009831
 30
0.000000
 40
26.083670
 50
-48.197982
 51
-24.112338
  6
CONTINUOUS
  0
ARC
  8
WHITE
 10
339.615190
 20
771.398370
 30
0.000000
 40
43.482808
 50
-76.121820
 51
-49.031713
  6
CONTINUOUS
  0
ARC
  8
WHITE
 10
372.712690
 20
621.355480
 30
0.000000
 40
110.186278
 50
101.871791
 51
104.210352
  6
CONTINUOUS
  0
ARC
  8
WHITE
 10
346.635989
 20
725.265973
 30
0.000000
 40
3.062572
 50
108.506662
 51
272.283755
  6
CONTINUOUS
  0
ARC
  8
WHITE
 10
336.833271
 20
676.233486
 30
0.000000
 40
47.031452
 50
38.010196
 51
77.817643
  6
CONTINUOUS
  0
ARC
  8
WHITE
 10
296.201250
 20
642.822690
 30
0.000000
 40
99.628418
 50
24.665823
 51
38.759645
  6
CONTINUOUS
  0
ARC
  8
WHITE
 10
105.278234
 20
550.407611
 30
0.000000
 40
311.727966
 50
24.613011
 51
25.457278
  6
CONTINUOUS
  0
ARC
  8
WHITE
 10
391.676983
 20
680.774570
 30
0.000000
 40
3.041543
 50
-169.845496
 51
-6.865574
  6
CONTINUOUS
  0
ARC
  8
WHITE
 10
388.789455
 20
680.513738
 30
0.000000
 40
5.908154
 50
-0.996540
 51
35.553840
  6
CONTINUOUS
  0
ARC
  8
WHITE
 10
285.286369
 20
636.032440
 30
0.000000
 40
118.435715
 50
23.864798
 51
37.541163
  6
CONTINUOUS
  0
ARC
  8
WHITE
 10
336.215239
 20
675.154559
 30
0.000000
 40
54.215082
 50
37.553852
 51
67.430591
  6
CONTINUOUS
  0
ARC
  8
WHITE
 10
340.865316
 20
770.314828
 30
0.000000
 40
47.904437
 50
-70.288006
 51
-54.513206
  6
CONTINUOUS
  0
ARC
  8
WHITE
 10
350.271056
 20
758.037014
 30
0.000000
 40
32.451407
 50
-55.451055
 51
-20.548597
  6
CONTINUOUS
  0
ARC
  8
WHITE
 10
355.865421
 20
755.106915
 30
0.000000
 40
26.196131
 50
-18.842253
 51
2.780067
  6
CONTINUOUS
  0
ARC
  8
WHITE
 10
356.147421
 20
755.267427
 30
0.000000
 40
25.907092
 50
2.455747
 51
13.399875
  6
CONTINUOUS
  0
ARC
  8
WHITE
 10
378.340613
 20
760.781573
 30
0.000000
 40
3.048210
 50
9.244960
 51
102.326935
  6
CONTINUOUS
  0
LINE
  8
WHITE
 10
377.689851
 20
763.759508
 30
0.000000
 11
377.689770
 21
763.759670
 31
0.000000
  6
CONTINUOUS
  0
LINE
  8
WHITE
 10
439.587819
 20
655.073969
 30
0.000000
 11
431.060146
 21
668.927748
 31
0.000000
  6
CONTINUOUS
  0
ARC
  8
WHITE
 10
357.433500
 20
626.632663
 30
0.000000
 40
84.910289
 50
29.875365
 51
40.848229
  6
CONTINUOUS
  0
LINE
  8
WHITE
 10
421.663446
 20
682.168883
 30
0.000000
 11
421.918326
 21
681.884123
 31
0.000000
  6
CONTINUOUS
  0
ARC
  8
WHITE
 10
373.914444
 20
644.990526
 30
0.000000
 40
60.543458
 50
37.544239
 51
46.613106
  6
CONTINUOUS
  0
ARC
  8
WHITE
 10
403.880383
 20
677.080800
 30
0.000000
 40
16.640324
 50
45.696178
 51
62.190857
  6
CONTINUOUS
  0
ARC
  8
WHITE
 10
408.117411
 20
685.748176
 30
0.000000
 40
7.003535
 50
59.769434
 51
99.037664
  6
CONTINUOUS
  0
LINE
  8
WHITE
 10
407.017269
 20
692.664764
 30
0.000000
 11
407.017116
 21
692.664944
 31
0.000000
  6
CONTINUOUS
  0
ARC
  8
WHITE
 10
408.476599
 20
686.113796
 30
0.000000
 40
6.711753
 50
102.559407
 51
158.440781
  6
CONTINUOUS
  0
ARC
  8
WHITE
 10
433.697985
 20
676.408457
 30
0.000000
 40
33.735822
 50
158.851079
 51
175.501844
  6
CONTINUOUS
  0
ARC
  8
WHITE
 10
2067.216181
 20
511.932601
 30
0.000000
 40
1675.505634
 50
174.275570
 51
174.611190
  6
CONTINUOUS
  0
ARC
  8
WHITE
 10
397.264394
 20
666.925199
 30
0.000000
 40
3.000003
 50
51.894335
 51
94.698334
  6
CONTINUOUS
  0
ARC
  8
WHITE
 10
398.714704
 20
667.154459
 30
0.000000
 40
3.240032
 50
121.564861
 51
217.850184
  6
CONTINUOUS
  0
ARC
  8
WHITE
 10
344.160632
 20
637.070985
 30
0.000000
 40
59.100782
 50
23.756458
 51
28.384165
  6
CONTINUOUS
  0
ARC
  8
WHITE
 10
401.054599
 20
662.098812
 30
0.000000
 40
3.054819
 50
-156.479961
 51
0.103150
  6
CONTINUOUS
  0
ARC
  8
WHITE
 10
295.468824
 20
681.858404
 30
0.000000
 40
110.421926
 50
-10.305488
 51
-3.804507
  6
CONTINUOUS
  0
ARC
  8
WHITE
 10
553.293856
 20
661.254063
 30
0.000000
 40
148.242261
 50
172.440038
 51
174.861315
  6
CONTINUOUS
  0
ARC
  8
WHITE
 10
421.876549
 20
679.435524
 30
0.000000
 40
15.592521
 50
152.056612
 51
175.136973
  6
CONTINUOUS
  0
ARC
  8
WHITE
 10
403.887771
 20
676.393534
 30
0.000000
 40
11.173780
 50
43.396665
 51
67.842838
  6
CONTINUOUS
  0
ARC
  8
WHITE
 10
342.279665
 20
616.749257
 30
0.000000
 40
96.922720
 50
33.333203
 51
43.994240
  6
CONTINUOUS
  0
ARC
  8
WHITE
 10
-36.202688
 20
375.877791
 30
0.000000
 40
545.542715
 50
31.204825
 51
32.626023
  6
CONTINUOUS
  0
ARC
  8
WHITE
 10
1306.837598
 20
1197.476952
 30
0.000000
 40
1028.880244
 50
-148.410770
 51
-147.845600
  6
CONTINUOUS
  0
ARC
  8
WHITE
 10
469.675214
 20
671.424078
 30
0.000000
 40
40.157988
 50
-147.596297
 51
-136.736442
  6
CONTINUOUS
  0
ARC
  8
WHITE
 10
443.220289
 20
646.738550
 30
0.000000
 40
3.977934
 50
-134.506144
 51
-52.399184
  6
CONTINUOUS
  0
ARC
  8
WHITE
 10
442.671601
 20
646.852085
 30
0.000000
 40
4.417811
 50
-47.654256
 51
7.904180
  6
CONTINUOUS
  0
ARC
  8
WHITE
 10
373.336405
 20
639.610582
 30
0.000000
 40
74.127754
 50
6.078164
 51
15.931715
  6
CONTINUOUS
  0
ARC
  8
WHITE
 10
413.257824
 20
654.702175
 30
0.000000
 40
31.796448
 50
9.514470
 51
26.251867
  6
CONTINUOUS
  0
LINE
  8
WHITE
 10
441.774733
 20
668.766314
 30
0.000000
 11
440.209311
 21
672.015945
 31
0.000000
  6
CONTINUOUS
  0
ARC
  8
WHITE
 10
437.345243
 20
670.923044
 30
0.000000
 40
3.065505
 50
20.886375
 51
138.867115
  6
CONTINUOUS
  0
ARC
  8
WHITE
 10
437.322429
 20
671.056229
 30
0.000000
 40
2.961941
 50
140.517496
 51
186.306291
  6
CONTINUOUS
  0
LINE
  8
WHITE
 10
434.378412
 20
670.730879
 30
0.000000
 11
437.611947
 21
663.111303
 31
0.000000
  6
CONTINUOUS
  0
ARC
  8
WHITE
 10
359.426426
 20
639.628884
 30
0.000000
 40
81.635774
 50
10.905812
 51
16.717235
  6
CONTINUOUS
  0
ARC
  8
WHITE
 10
229.770826
 20
61.209667
 30
0.000000
 40
43.499628
 50
143.318708
 51
163.869329
  6
CONTINUOUS
  0
ARC
  8
WHITE
 10
238.542946
 20
57.467948
 30
0.000000
 40
52.978594
 50
162.617664
 51
171.057590
  6
CONTINUOUS
  0
ARC
  8
WHITE
 10
210.733877
 20
59.951092
 30
0.000000
 40
25.191041
 50
166.801076
 51
175.669138
  6
CONTINUOUS
  0
ARC
  8
WHITE
 10
193.263121
 20
61.109741
 30
0.000000
 40
7.684425
 50
174.446409
 51
188.986293
  6
CONTINUOUS
  0
ARC
  8
WHITE
 10
187.776616
 20
60.078545
 30
0.000000
 40
2.110384
 50
-175.404185
 51
-122.846374
  6
CONTINUOUS
  0
ARC
  8
WHITE
 10
186.897147
 20
62.126159
 30
0.000000
 40
3.829799
 50
-93.970393
 51
-48.006871
  6
CONTINUOUS
  0
ARC
  8
WHITE
 10
154.724667
 20
100.505227
 30
0.000000
 40
53.907736
 50
-49.883980
 51
-37.590793
  6
CONTINUOUS
  0
ARC
  8
WHITE
 10
23.741990
 20
211.249647
 30
0.000000
 40
225.389637
 50
-39.586916
 51
-35.174280
  6
CONTINUOUS
  0
ARC
  8
WHITE
 10
139.919726
 20
129.762381
 30
0.000000
 40
83.484148
 50
-35.392523
 51
-23.479350
  6
CONTINUOUS
  0
ARC
  8
WHITE
 10
213.923504
 20
96.718332
 30
0.000000
 40
2.577394
 50
-4.842641
 51
71.079054
  6
CONTINUOUS
  0
ARC
  8
WHITE
 10
213.276595
 20
93.056064
 30
0.000000
 40
6.277989
 50
76.339489
 51
103.757157
  6
CONTINUOUS
  0
ARC
  8
WHITE
 10
220.263114
 20
69.418268
 30
0.000000
 40
30.921065
 50
105.916106
 51
125.432270
  6
CONTINUOUS
  0
ARC
  8
WHITE
 10
214.084671
 20
77.662159
 30
0.000000
 40
20.623615
 50
124.724127
 51
139.365674
  6
CONTINUOUS
  0
ARC
  8
WHITE
 10
1630.250784
 20
-1215.836832
 30
0.000000
 40
1938.598746
 50
137.610888
 51
137.766682
  6
CONTINUOUS
  0
ARC
  8
WHITE
 10
729.324547
 20
61.234783
 30
0.000000
 40
43.429447
 50
16.123977
 51
36.708947
  6
CONTINUOUS
  0
ARC
  8
WHITE
 10
720.409026
 20
57.447796
 30
0.000000
 40
53.058694
 50
8.951248
 51
17.378902
  6
CONTINUOUS
  0
ARC
  8
WHITE
 10
748.308221
 20
59.951341
 30
0.000000
 40
25.179124
 50
4.332850
 51
13.205598
  6
CONTINUOUS
  0
ARC
  8
WHITE
 10
765.768369
 20
61.109755
 30
0.000000
 40
7.683109
 50
-8.987123
 51
5.556085
  6
CONTINUOUS
  0
ARC
  8
WHITE
 10
771.253464
 20
60.078597
 30
0.000000
 40
2.110474
 50
-57.152480
 51
-4.594041
  6
CONTINUOUS
  0
ARC
  8
WHITE
 10
772.133017
 20
62.126163
 30
0.000000
 40
3.829803
 50
-131.993092
 51
-86.029617
  6
CONTINUOUS
  0
ARC
  8
WHITE
 10
804.305577
 20
100.505338
 30
0.000000
 40
53.907873
 50
-142.409165
 51
-130.116009
  6
CONTINUOUS
  0
ARC
  8
WHITE
 10
935.286818
 20
211.248584
 30
0.000000
 40
225.387920
 50
-144.825743
 51
-140.413072
  6
CONTINUOUS
  0
ARC
  8
WHITE
 10
819.110629
 20
129.762465
 30
0.000000
 40
83.484357
 50
-156.520649
 51
-144.607506
  6
CONTINUOUS
  0
ARC
  8
WHITE
 10
745.106756
 20
96.718290
 30
0.000000
 40
2.577486
 50
108.929373
 51
184.841519
  6
CONTINUOUS
  0
ARC
  8
WHITE
 10
745.753484
 20
93.056853
 30
0.000000
 40
6.277195
 50
76.245534
 51
103.664218
  6
CONTINUOUS
  0
ARC
  8
WHITE
 10
738.767548
 20
69.418311
 30
0.000000
 40
30.920819
 50
54.571202
 51
74.085804
  6
CONTINUOUS
  0
ARC
  8
WHITE
 10
744.934900
 20
77.651387
 30
0.000000
 40
20.638599
 50
40.643300
 51
55.272877
  6
CONTINUOUS
  0
ARC
  8
WHITE
 10
-569.057171
 20
-1121.612934
 30
0.000000
 40
1799.620466
 50
42.198520
 51
42.366331
  6
CONTINUOUS
  0
ARC
  8
WHITE
 10
762.338516
 20
1197.265779
 30
0.000000
 40
134.716808
 50
91.679242
 51
96.111933
  6
CONTINUOUS
  0
ARC
  8
WHITE
 10
750.720525
 20
1309.005062
 30
0.000000
 40
22.378354
 50
96.995434
 51
110.328566
  6
CONTINUOUS
  0
ARC
  8
WHITE
 10
745.099301
 20
1323.100667
 30
0.000000
 40
7.217561
 50
107.356275
 51
148.654776
  6
CONTINUOUS
  0
ARC
  8
WHITE
 10
760.855970
 20
1385.828654
 30
0.000000
 40
62.915747
 50
-110.390425
 51
-71.967889
  6
CONTINUOUS
  0
ARC
  8
WHITE
 10
777.691527
 20
1328.921407
 30
0.000000
 40
3.935225
 50
-47.866045
 51
-24.102649
  6
CONTINUOUS
  0
ARC
  8
WHITE
 10
779.387288
 20
1327.608921
 30
0.000000
 40
1.919112
 50
-8.828854
 51
81.828591
  6
CONTINUOUS
  0
ARC
  8
WHITE
 10
763.286640
 20
1270.316690
 30
0.000000
 40
61.414697
 50
74.537699
 51
84.552941
  6
CONTINUOUS
  0
ARC
  8
WHITE
 10
759.818769
 20
1242.021723
 30
0.000000
 40
89.914350
 50
84.064639
 51
90.910003
  6
CONTINUOUS
  0
ARC
  8
WHITE
 10
807.905811
 20
1249.093564
 30
0.000000
 40
19.724555
 50
156.450717
 51
187.948927
  6
CONTINUOUS
  0
ARC
  8
WHITE
 10
904.099599
 20
1252.800245
 30
0.000000
 40
115.907559
 50
-176.817694
 51
-168.770947
  6
CONTINUOUS
  0
ARC
  8
WHITE
 10
825.391326
 20
1234.896509
 30
0.000000
 40
35.290390
 50
-172.400385
 51
-145.980718
  6
CONTINUOUS
  0
ARC
  8
WHITE
 10
793.969190
 20
1219.746165
 30
0.000000
 40
5.081128
 50
-64.696767
 51
-0.862716
  6
CONTINUOUS
  0
ARC
  8
WHITE
 10
719.868122
 20
1221.554076
 30
0.000000
 40
79.204041
 50
-1.363305
 51
5.785389
  6
CONTINUOUS
  0
ARC
  8
WHITE
 10
756.963445
 20
1229.841986
 30
0.000000
 40
41.706395
 50
-0.417549
 51
9.764956
  6
CONTINUOUS
  0
ARC
  8
WHITE
 10
740.203309
 20
1229.815485
 30
0.000000
 40
58.296280
 50
6.995701
 51
17.935157
  6
CONTINUOUS
  0
ARC
  8
WHITE
 10
767.257716
 20
1237.738733
 30
0.000000
 40
30.127112
 50
19.443313
 51
30.026149
  6
CONTINUOUS
  0
ARC
  8
WHITE
 10
781.856097
 20
1246.904583
 30
0.000000
 40
12.916741
 50
27.226919
 51
39.569519
  6
CONTINUOUS
  0
ARC
  8
WHITE
 10
788.496713
 20
1253.545789
 30
0.000000
 40
3.676426
 50
25.572483
 51
68.837085
  6
CONTINUOUS
  0
ARC
  8
WHITE
 10
903.936778
 20
1303.866442
 30
0.000000
 40
34.599961
 50
114.270690
 51
132.864808
  6
CONTINUOUS
  0
ARC
  8
WHITE
 10
933.459239
 20
1275.082482
 30
0.000000
 40
75.808684
 50
134.420364
 51
147.155648
  6
CONTINUOUS
  0
ARC
  8
WHITE
 10
1090.773610
 20
1180.296657
 30
0.000000
 40
259.446135
 50
148.411613
 51
150.271854
  6
CONTINUOUS
  0
ARC
  8
WHITE
 10
882.947311
 20
1298.199559
 30
0.000000
 40
20.516975
 50
148.393370
 51
160.145059
  6
CONTINUOUS
  0
ARC
  8
WHITE
 10
869.280199
 20
1303.209512
 30
0.000000
 40
5.961130
 50
160.820206
 51
180.981997
  6
CONTINUOUS
  0
ARC
  8
WHITE
 10
864.797320
 20
1303.435438
 30
0.000000
 40
1.513368
 50
-167.479205
 51
-88.401082
  6
CONTINUOUS
  0
ARC
  8
WHITE
 10
821.514614
 20
1364.832362
 30
0.000000
 40
76.385081
 50
-55.445420
 51
-39.115703
  6
CONTINUOUS
  0
ARC
  8
WHITE
 10
825.510807
 20
1361.506101
 30
0.000000
 40
71.186066
 50
-39.067728
 51
-30.308645
  6
CONTINUOUS
  0
ARC
  8
WHITE
 10
840.480995
 20
1353.340283
 30
0.000000
 40
54.143423
 50
-30.843175
 51
-25.084902
  6
CONTINUOUS
  0
LINE
  8
WHITE
 10
889.517641
 20
1330.385595
 30
0.000000
 11
890.666444
 21
1332.852599
 31
0.000000
  6
CONTINUOUS
  0
ARC
  8
WHITE
 10
889.226959
 20
1333.956128
 30
0.000000
 40
1.813807
 50
-37.474268
 51
48.683721
  6
CONTINUOUS
  0
LINE
  8
WHITE
 10
890.424461
 20
1335.318436
 30
0.000000
 11
889.714530
 21
1335.408240
 31
0.000000
  6
CONTINUOUS
  0
ARC
  8
WHITE
 10
874.769995
 20
1240.396135
 30
0.000000
 40
8.951733
 50
21.917966
 51
54.682721
  6
CONTINUOUS
  0
ARC
  8
WHITE
 10
864.249120
 20
1224.012415
 30
0.000000
 40
28.416246
 50
56.471153
 51
74.533970
  6
CONTINUOUS
  0
ARC
  8
WHITE
 10
785.669315
 20
964.413141
 30
0.000000
 40
299.640419
 50
73.289488
 51
74.574220
  6
CONTINUOUS
  0
ARC
  8
WHITE
 10
843.080222
 20
1181.746989
 30
0.000000
 40
74.905723
 50
72.687717
 51
88.099208
  6
CONTINUOUS
  0
ARC
  8
WHITE
 10
846.709260
 20
1252.948096
 30
0.000000
 40
3.838015
 50
107.349432
 51
152.541393
  6
CONTINUOUS
  0
ARC
  8
WHITE
 10
845.800805
 20
1254.768145
 30
0.000000
 40
2.497692
 50
-178.845812
 51
-117.798224
  6
CONTINUOUS
  0
ARC
  8
WHITE
 10
864.895249
 20
1284.621298
 30
0.000000
 40
37.926880
 50
-122.287399
 51
-107.165115
  6
CONTINUOUS
  0
ARC
  8
WHITE
 10
883.345545
 20
1324.096271
 30
0.000000
 40
81.308819
 50
-111.381699
 51
-100.794330
  6
CONTINUOUS
  0
ARC
  8
WHITE
 10
877.152474
 20
1291.630409
 30
0.000000
 40
48.257552
 50
-100.790591
 51
-82.950833
  6
CONTINUOUS
  0
ARC
  8
WHITE
 10
817.456497
 20
1373.412656
 30
0.000000
 40
6.976652
 50
143.992200
 51
188.449183
  6
CONTINUOUS
  0
ARC
  8
WHITE
 10
840.161851
 20
1378.162314
 30
0.000000
 40
30.164216
 50
-168.962943
 51
-151.014877
  6
CONTINUOUS
  0
LINE
  8
WHITE
 10
813.775837
 20
1363.545263
 30
0.000000
 11
817.112794
 21
1357.283878
 31
0.000000
  6
CONTINUOUS
  0
ARC
  8
WHITE
 10
833.022476
 20
1363.150895
 30
0.000000
 40
16.957000
 50
-159.757526
 51
-141.778330
  6
CONTINUOUS
  0
ARC
  8
WHITE
 10
1202.626336
 20
1570.135383
 30
0.000000
 40
440.372371
 50
-150.406355
 51
-149.368088
  6
CONTINUOUS
  0
ARC
  8
WHITE
 10
832.551030
 20
1351.096775
 30
0.000000
 40
10.333631
 50
-148.883275
 51
-126.769104
  6
CONTINUOUS
  0
ARC
  8
WHITE
 10
828.057408
 20
1345.033225
 30
0.000000
 40
2.786715
 50
-127.385011
 51
-44.824817
  6
CONTINUOUS
  0
ARC
  8
WHITE
 10
769.684772
 20
1334.983411
 30
0.000000
 40
60.888369
 50
7.630824
 51
26.068392
  6
CONTINUOUS
  0
ARC
  8
WHITE
 10
778.672027
 20
1339.643562
 30
0.000000
 40
50.768064
 50
25.801275
 51
47.916368
  6
CONTINUOUS
  0
LINE
  8
WHITE
 10
812.697525
 20
1377.321961
 30
0.000000
 11
811.812825
 21
1377.514197
 31
0.000000
  6
CONTINUOUS
  0
ARC
  8
WHITE
 10
771.384368
 20
1274.504216
 30
0.000000
 40
28.935630
 50
98.467667
 51
118.914382
  6
CONTINUOUS
  0
ARC
  8
WHITE
 10
795.315420
 20
1229.708871
 30
0.000000
 40
79.720813
 50
118.403548
 51
129.531973
  6
CONTINUOUS
  0
ARC
  8
WHITE
 10
664.647024
 20
1387.255198
 30
0.000000
 40
124.962442
 50
-53.788797
 51
-50.238344
  6
CONTINUOUS
  0
ARC
  8
WHITE
 10
752.432588
 20
1270.347615
 30
0.000000
 40
21.297566
 50
130.963873
 51
141.380052
  6
CONTINUOUS
  0
ARC
  8
WHITE
 10
738.528284
 20
1281.498060
 30
0.000000
 40
3.474681
 50
141.932206
 51
205.783958
  6
CONTINUOUS
  0
ARC
  8
WHITE
 10
725.415941
 20
1329.777786
 30
0.000000
 40
50.782179
 50
-78.661997
 51
-55.229181
  6
CONTINUOUS
  0
ARC
  8
WHITE
 10
708.771824
 20
1354.970761
 30
0.000000
 40
80.971738
 50
-55.721179
 51
-41.035349
  6
CONTINUOUS
  0
LINE
  8
WHITE
 10
769.849184
 20
1301.810829
 30
0.000000
 11
769.817724
 21
1302.199456
 31
0.000000
  6
CONTINUOUS
  0
ARC
  8
WHITE
 10
766.982857
 20
1298.328441
 30
0.000000
 40
4.798044
 50
53.783494
 51
88.319563
  6
CONTINUOUS
  0
ARC
  8
WHITE
 10
870.185333
 20
1357.121707
 30
0.000000
 40
17.726761
 50
135.879721
 51
169.889762
  6
CONTINUOUS
  0
ARC
  8
WHITE
 10
639.929715
 20
1405.945763
 30
0.000000
 40
217.658457
 50
-14.201873
 51
-12.123423
  6
CONTINUOUS
  0
ARC
  8
WHITE
 10
907.146234
 20
1341.270607
 30
0.000000
 40
57.329945
 50
168.657751
 51
192.321106
  6
CONTINUOUS
  0
ARC
  8
WHITE
 10
851.266118
 20
1333.540088
 30
0.000000
 40
4.504991
 50
-91.645335
 51
-22.083839
  6
CONTINUOUS
  0
ARC
  8
WHITE
 10
829.832747
 20
1342.712412
 30
0.000000
 40
27.817851
 50
-22.992692
 51
-3.253544
  6
CONTINUOUS
  0
LINE
  8
WHITE
 10
857.605759
 20
1341.133623
 30
0.000000
 11
858.951919
 21
1355.450030
 31
0.000000
  6
CONTINUOUS
  0
ARC
  8
WHITE
 10
818.680335
 20
1361.372928
 30
0.000000
 40
40.704805
 50
-8.366731
 51
1.754311
  6
CONTINUOUS
  0
ARC
  8
WHITE
 10
844.811564
 20
1362.251784
 30
0.000000
 40
14.559131
 50
1.445499
 51
29.687588
  6
CONTINUOUS
  0
ARC
  8
WHITE
 10
827.999863
 20
1247.927190
 30
0.000000
 40
11.647841
 50
176.894330
 51
203.899408
  6
CONTINUOUS
  0
ARC
  8
WHITE
 10
848.411206
 20
1257.366014
 30
0.000000
 40
34.134949
 50
-155.495930
 51
-139.351261
  6
CONTINUOUS
  0
ARC
  8
WHITE
 10
877.165946
 20
1275.693764
 30
0.000000
 40
68.062031
 50
-143.417134
 51
-119.141115
  6
CONTINUOUS
  0
ARC
  8
WHITE
 10
829.535867
 20
1216.639848
 30
0.000000
 40
14.491768
 50
-1.554098
 51
20.190191
  6
CONTINUOUS
  0
ARC
  8
WHITE
 10
818.456323
 20
1211.517818
 30
0.000000
 40
26.676432
 50
22.302662
 51
42.991796
  6
CONTINUOUS
  0
ARC
  8
WHITE
 10
-2819.193798
 20
-2173.952384
 30
0.000000
 40
4995.972841
 50
42.943816
 51
43.109458
  6
CONTINUOUS
  0
ARC
  8
WHITE
 10
798.569249
 20
1210.881594
 30
0.000000
 40
41.669720
 50
44.845505
 51
64.712170
  6
CONTINUOUS
  0
ARC
  8
WHITE
 10
773.449296
 20
1363.023923
 30
0.000000
 40
7.050494
 50
-179.510294
 51
-133.639370
  6
CONTINUOUS
  0
ARC
  8
WHITE
 10
793.783807
 20
1383.258638
 30
0.000000
 40
35.735412
 50
-134.844718
 51
-118.985757
  6
CONTINUOUS
  0
ARC
  8
WHITE
 10
711.765725
 20
1240.634590
 30
0.000000
 40
128.795753
 50
56.542424
 51
59.844180
  6
CONTINUOUS
  0
ARC
  8
WHITE
 10
1334.557683
 20
2386.249685
 30
0.000000
 40
1175.689312
 50
-117.990709
 51
-117.448482
  6
CONTINUOUS
  0
ARC
  8
WHITE
 10
804.647607
 20
1365.441647
 30
0.000000
 40
25.537166
 50
-118.091391
 51
-105.617876
  6
CONTINUOUS
  0
ARC
  8
WHITE
 10
799.728824
 20
1345.059889
 30
0.000000
 40
4.644649
 50
-114.910566
 51
-46.449887
  6
CONTINUOUS
  0
ARC
  8
WHITE
 10
751.338799
 20
1294.533246
 30
0.000000
 40
69.897346
 50
42.431516
 51
60.042624
  6
CONTINUOUS
  0
ARC
  8
WHITE
 10
746.961834
 20
1287.404275
 30
0.000000
 40
78.259872
 50
59.872553
 51
67.735745
  6
CONTINUOUS
  0
ARC
  8
WHITE
 10
741.298263
 20
1272.699569
 30
0.000000
 40
94.014674
 50
67.936841
 51
71.209289
  6
CONTINUOUS
  0
LINE
  8
WHITE
 10
771.581537
 20
1361.703402
 30
0.000000
 11
769.022406
 21
1362.517143
 31
0.000000
  6
CONTINUOUS
  0
ARC
  8
WHITE
 10
766.873501
 20
1357.821591
 30
0.000000
 40
5.163914
 50
65.408943
 51
95.271560
  6
CONTINUOUS
  0
ARC
  8
WHITE
 10
786.381277
 20
1257.764803
 30
0.000000
 40
23.023123
 50
127.963644
 51
154.950633
  6
CONTINUOUS
  0
ARC
  8
WHITE
 10
453.210805
 20
1419.405130
 30
0.000000
 40
347.290356
 50
-27.277516
 51
-25.935826
  6
CONTINUOUS
  0
ARC
  8
WHITE
 10
840.252530
 20
1221.862902
 30
0.000000
 40
87.263689
 50
153.908730
 51
161.914186
  6
CONTINUOUS
  0
ARC
  8
WHITE
 10
789.604193
 20
1238.166007
 30
0.000000
 40
34.057349
 50
161.534458
 51
171.788475
  6
CONTINUOUS
  0
ARC
  8
WHITE
 10
763.118574
 20
1241.188096
 30
0.000000
 40
7.453807
 50
165.690705
 51
212.508859
  6
CONTINUOUS
  0
ARC
  8
WHITE
 10
661.602056
 20
1306.287072
 30
0.000000
 40
117.662069
 50
-35.966809
 51
-25.373523
  6
CONTINUOUS
  0
ARC
  8
WHITE
 10
683.172514
 20
1295.700777
 30
0.000000
 40
93.636578
 50
-25.176646
 51
-18.521613
  6
CONTINUOUS
  0
ARC
  8
WHITE
 10
680.009209
 20
1296.206458
 30
0.000000
 40
96.798097
 50
-18.210637
 51
-14.991773
  6
CONTINUOUS
  0
ARC
  8
WHITE
 10
767.393375
 20
1272.950897
 30
0.000000
 40
6.374022
 50
-16.255323
 51
8.130722
  6
CONTINUOUS
  0
ARC
  8
WHITE
 10
771.454320
 20
1273.800370
 30
0.000000
 40
2.249606
 50
1.324971
 51
70.145965
  6
CONTINUOUS
  0
ARC
  8
WHITE
 10
915.743551
 20
1158.024948
 30
0.000000
 40
132.874370
 50
97.834406
 51
106.033184
  6
CONTINUOUS
  0
ARC
  8
WHITE
 10
900.004197
 20
1212.523246
 30
0.000000
 40
76.148874
 50
105.976738
 51
120.284551
  6
CONTINUOUS
  0
ARC
  8
WHITE
 10
864.362281
 20
1275.911060
 30
0.000000
 40
3.637037
 50
139.353254
 51
184.925104
  6
CONTINUOUS
  0
ARC
  8
WHITE
 10
862.958211
 20
1276.677821
 30
0.000000
 40
2.467918
 50
-154.073616
 51
-91.720626
  6
CONTINUOUS
  0
ARC
  8
WHITE
 10
863.982958
 20
1297.592853
 30
0.000000
 40
23.407643
 50
-92.690682
 51
-67.693465
  6
CONTINUOUS
  0
ARC
  8
WHITE
 10
917.208447
 20
1184.188316
 30
0.000000
 40
101.901476
 50
107.182384
 51
115.793851
  6
CONTINUOUS
  0
ARC
  8
WHITE
 10
876.775751
 20
1316.436847
 30
0.000000
 40
36.391760
 50
-73.510308
 51
-49.393507
  6
CONTINUOUS
  0
ARC
  8
WHITE
 10
899.402210
 20
1288.496291
 30
0.000000
 40
1.104480
 50
16.409754
 51
99.069967
  6
CONTINUOUS
  0
ARC
  8
WHITE
 10
898.881160
 20
1299.616066
 30
0.000000
 40
10.035104
 50
-97.154236
 51
-88.018743
  6
CONTINUOUS
  0
ENDSEC
  0
EOF
