ISO-10303-21;
HEADER;
FILE_DESCRIPTION (( 'STEP AP214' ),
    '1' );
FILE_NAME ('Assemblage1.STEP',
    '2023-09-06T09:26:12',
    ( '' ),
    ( '' ),
    'SwSTEP 2.0',
    'SolidWorks 2022',
    '' );
FILE_SCHEMA (( 'AUTOMOTIVE_DESIGN' ));
ENDSEC;

DATA;
#1 = UNCERTAINTY_MEASURE_WITH_UNIT (LENGTH_MEASURE( 1.000000000000000082E-05 ), #202, 'distance_accuracy_value', 'NONE');
#2 = FACE_OUTER_BOUND ( 'NONE', #186, .T. ) ;
#3 = PLANE ( 'NONE',  #240 ) ;
#4 = DIRECTION ( 'NONE',  ( 0.000000000000000000, 0.000000000000000000, -1.000000000000000000 ) ) ;
#5 = AXIS2_PLACEMENT_3D ( 'NONE', #141, #203, #200 ) ;
#6 = DIRECTION ( 'NONE',  ( -1.000000000000000000, 0.000000000000000000, 0.000000000000000000 ) ) ;
#7 = APPLICATION_CONTEXT ( 'automotive_design' ) ;
#8 = DIRECTION ( 'NONE',  ( 0.000000000000000000, 1.000000000000000000, 6.123233995736769734E-17 ) ) ;
#9 = ADVANCED_FACE ( 'NONE', ( #17, #44 ), #173, .T. ) ;
#10 =( NAMED_UNIT ( * ) PLANE_ANGLE_UNIT ( ) SI_UNIT ( $, .RADIAN. ) );
#11 = DIRECTION ( 'NONE',  ( -1.000000000000000000, 0.000000000000000000, 0.000000000000000000 ) ) ;
#12 = PRESENTATION_STYLE_ASSIGNMENT (( #179 ) ) ;
#13 = ADVANCED_FACE ( 'NONE', ( #2, #205 ), #37, .F. ) ;
#14 = PRESENTATION_LAYER_ASSIGNMENT (  '', '', ( #233 ) ) ;
#15 = CYLINDRICAL_SURFACE ( 'NONE', #5, 8.500000000000000000 ) ;
#16 = DIRECTION ( 'NONE',  ( 0.000000000000000000, 0.000000000000000000, 1.000000000000000000 ) ) ;
#17 = FACE_BOUND ( 'NONE', #172, .T. ) ;
#18 = EDGE_CURVE ( 'NONE', #165, #165, #64, .T. ) ;
#19 = EDGE_LOOP ( 'NONE', ( #128 ) ) ;
#20 = PRODUCT_DEFINITION_FORMATION_WITH_SPECIFIED_SOURCE ( 'ANY', '', #45, .NOT_KNOWN. ) ;
#21 = FILL_AREA_STYLE_COLOUR ( '', #220 ) ;
#22 = UNCERTAINTY_MEASURE_WITH_UNIT (LENGTH_MEASURE( 1.000000000000000082E-05 ), #184, 'distance_accuracy_value', 'NONE');
#23 = ORIENTED_EDGE ( 'NONE', *, *, #41, .T. ) ;
#24 = ORIENTED_EDGE ( 'NONE', *, *, #82, .F. ) ;
#25 = FACE_OUTER_BOUND ( 'NONE', #185, .T. ) ;
#26 = PRESENTATION_LAYER_ASSIGNMENT (  '', '', ( #231 ) ) ;
#27 = STYLED_ITEM ( 'NONE', ( #108 ), #181 ) ;
#28 = DIRECTION ( 'NONE',  ( 0.000000000000000000, -1.000000000000000000, 0.000000000000000000 ) ) ;
#29 = EDGE_CURVE ( 'NONE', #32, #32, #40, .T. ) ;
#30 =( NAMED_UNIT ( * ) SI_UNIT ( $, .STERADIAN. ) SOLID_ANGLE_UNIT ( ) );
#31 = DIRECTION ( 'NONE',  ( 0.000000000000000000, 1.000000000000000000, 6.123233995736769734E-17 ) ) ;
#32 = VERTEX_POINT ( 'NONE', #207 ) ;
#33 = FILL_AREA_STYLE_COLOUR ( '', #168 ) ;
#34 =( GEOMETRIC_REPRESENTATION_CONTEXT ( 3 ) GLOBAL_UNCERTAINTY_ASSIGNED_CONTEXT ( ( #22 ) ) GLOBAL_UNIT_ASSIGNED_CONTEXT ( ( #184, #95, #59 ) ) REPRESENTATION_CONTEXT ( 'NONE', 'WORKASPACE' ) );
#35 = SURFACE_STYLE_FILL_AREA ( #104 ) ;
#36 = CARTESIAN_POINT ( 'NONE',  ( 0.000000000000000000, 0.000000000000000000, 0.000000000000000000 ) ) ;
#37 = CYLINDRICAL_SURFACE ( 'NONE', #148, 8.500000000000000000 ) ;
#38 = EDGE_LOOP ( 'NONE', ( #188 ) ) ;
#39 = VERTEX_POINT ( 'NONE', #116 ) ;
#40 = CIRCLE ( 'NONE', #142, 9.999999999999994671 ) ;
#41 = EDGE_CURVE ( 'NONE', #149, #149, #140, .T. ) ;
#42 = FILL_AREA_STYLE ('',( #21 ) ) ;
#43 = UNCERTAINTY_MEASURE_WITH_UNIT (LENGTH_MEASURE( 1.000000000000000082E-05 ), #106, 'distance_accuracy_value', 'NONE');
#44 = FACE_OUTER_BOUND ( 'NONE', #210, .T. ) ;
#45 = PRODUCT ( 'Assemblage1', 'Assemblage1', '', ( #151 ) ) ;
#46 = FACE_BOUND ( 'NONE', #208, .T. ) ;
#47 = DIRECTION ( 'NONE',  ( 0.000000000000000000, 0.000000000000000000, 1.000000000000000000 ) ) ;
#48 =( NAMED_UNIT ( * ) PLANE_ANGLE_UNIT ( ) SI_UNIT ( $, .RADIAN. ) );
#49 = PRODUCT_DEFINITION_SHAPE ( 'NONE', 'NONE',  #236 ) ;
#50 = CYLINDRICAL_SURFACE ( 'NONE', #72, 10.00000000000000000 ) ;
#51 = CARTESIAN_POINT ( 'NONE',  ( 100.0000000000000000, 100.0000000000000000, 0.000000000000000000 ) ) ;
#52 = COLOUR_RGB ( '',0.7921568627450980005, 0.8196078431372548767, 0.9294117647058823817 ) ;
#53 = FACE_OUTER_BOUND ( 'NONE', #206, .T. ) ;
#54 = PRESENTATION_LAYER_ASSIGNMENT (  '', '', ( #161 ) ) ;
#55 = SURFACE_SIDE_STYLE ('',( #35 ) ) ;
#56 = DIRECTION ( 'NONE',  ( -1.000000000000000000, 0.000000000000000000, 0.000000000000000000 ) ) ;
#57 = SURFACE_STYLE_FILL_AREA ( #42 ) ;
#58 = CIRCLE ( 'NONE', #137, 8.500000000000000000 ) ;
#59 =( NAMED_UNIT ( * ) SI_UNIT ( $, .STERADIAN. ) SOLID_ANGLE_UNIT ( ) );
#60 = CARTESIAN_POINT ( 'NONE',  ( 100.0000000000000000, 91.50000000000000000, 0.000000000000000000 ) ) ;
#61 = UNCERTAINTY_MEASURE_WITH_UNIT (LENGTH_MEASURE( 1.000000000000000082E-05 ), #147, 'distance_accuracy_value', 'NONE');
#62 = EDGE_LOOP ( 'NONE', ( #78 ) ) ;
#63 = SHAPE_DEFINITION_REPRESENTATION ( #49, #181 ) ;
#64 = CIRCLE ( 'NONE', #177, 10.00000000000000000 ) ;
#65 = ORIENTED_EDGE ( 'NONE', *, *, #217, .F. ) ;
#66 = FACE_OUTER_BOUND ( 'NONE', #111, .T. ) ;
#67 =( GEOMETRIC_REPRESENTATION_CONTEXT ( 3 ) GLOBAL_UNCERTAINTY_ASSIGNED_CONTEXT ( ( #61 ) ) GLOBAL_UNIT_ASSIGNED_CONTEXT ( ( #147, #114, #209 ) ) REPRESENTATION_CONTEXT ( 'NONE', 'WORKASPACE' ) );
#68 = FILL_AREA_STYLE ('',( #237 ) ) ;
#69 = DIRECTION ( 'NONE',  ( 1.000000000000000000, 0.000000000000000000, 0.000000000000000000 ) ) ;
#70 =( NAMED_UNIT ( * ) SI_UNIT ( $, .STERADIAN. ) SOLID_ANGLE_UNIT ( ) );
#71 = ADVANCED_FACE ( 'NONE', ( #46, #83 ), #3, .F. ) ;
#72 = AXIS2_PLACEMENT_3D ( 'NONE', #215, #120, #196 ) ;
#73 = DIRECTION ( 'NONE',  ( 0.000000000000000000, 0.000000000000000000, -1.000000000000000000 ) ) ;
#74 = VERTEX_POINT ( 'NONE', #244 ) ;
#75 = ORIENTED_EDGE ( 'NONE', *, *, #18, .T. ) ;
#76 = COLOUR_RGB ( '',0.7490196078431372584, 0.7490196078431372584, 0.7490196078431372584 ) ;
#77 = MECHANICAL_DESIGN_GEOMETRIC_PRESENTATION_REPRESENTATION (  '', ( #27 ), #34 ) ;
#78 = ORIENTED_EDGE ( 'NONE', *, *, #18, .F. ) ;
#79 = CLOSED_SHELL ( 'NONE', ( #225, #195, #201, #100, #9, #13, #93, #71 ) ) ;
#80 = ORIENTED_EDGE ( 'NONE', *, *, #163, .F. ) ;
#81 = SURFACE_STYLE_USAGE ( .BOTH. , #174 ) ;
#82 = EDGE_CURVE ( 'NONE', #74, #74, #197, .T. ) ;
#83 = FACE_OUTER_BOUND ( 'NONE', #223, .T. ) ;
#84 = DIRECTION ( 'NONE',  ( 0.000000000000000000, 0.000000000000000000, -1.000000000000000000 ) ) ;
#85 = CARTESIAN_POINT ( 'NONE',  ( 8.673617379884039259E-14, 74.00000000000000000, -1.561251128379124807E-14 ) ) ;
#86 = FACE_OUTER_BOUND ( 'NONE', #190, .T. ) ;
#87 = AXIS2_PLACEMENT_3D ( 'NONE', #94, #169, #117 ) ;
#88 =( NAMED_UNIT ( * ) PLANE_ANGLE_UNIT ( ) SI_UNIT ( $, .RADIAN. ) );
#89 = FACE_OUTER_BOUND ( 'NONE', #38, .T. ) ;
#90 = FILL_AREA_STYLE ('',( #33 ) ) ;
#91 = MECHANICAL_DESIGN_GEOMETRIC_PRESENTATION_REPRESENTATION (  '', ( #231 ), #189 ) ;
#92 = SURFACE_SIDE_STYLE ('',( #124 ) ) ;
#93 = ADVANCED_FACE ( 'NONE', ( #101, #66 ), #50, .T. ) ;
#94 = CARTESIAN_POINT ( 'NONE',  ( 100.0000000000000000, 100.0000000000000000, 0.000000000000000000 ) ) ;
#95 =( NAMED_UNIT ( * ) PLANE_ANGLE_UNIT ( ) SI_UNIT ( $, .RADIAN. ) );
#96 = ORIENTED_EDGE ( 'NONE', *, *, #198, .T. ) ;
#97 = SURFACE_SIDE_STYLE ('',( #57 ) ) ;
#98 = CIRCLE ( 'NONE', #118, 8.500000000000000000 ) ;
#99 = CARTESIAN_POINT ( 'NONE',  ( 26.00000000000000000, 100.0000000000000000, 0.000000000000000000 ) ) ;
#100 = ADVANCED_FACE ( 'NONE', ( #192, #25 ), #199, .T. ) ;
#101 = FACE_OUTER_BOUND ( 'NONE', #62, .T. ) ;
#102 = DIRECTION ( 'NONE',  ( 0.000000000000000000, -6.123233995736769734E-17, 1.000000000000000000 ) ) ;
#103 = CARTESIAN_POINT ( 'NONE',  ( 0.000000000000000000, 0.000000000000000000, 0.000000000000000000 ) ) ;
#104 = FILL_AREA_STYLE ('',( #182 ) ) ;
#105 = MECHANICAL_DESIGN_GEOMETRIC_PRESENTATION_REPRESENTATION (  '', ( #161 ), #157 ) ;
#106 =( LENGTH_UNIT ( ) NAMED_UNIT ( * ) SI_UNIT ( .MILLI., .METRE. ) );
#107 = FACE_OUTER_BOUND ( 'NONE', #243, .T. ) ;
#108 = PRESENTATION_STYLE_ASSIGNMENT (( #170 ) ) ;
#109 = VERTEX_POINT ( 'NONE', #187 ) ;
#110 = ORIENTED_EDGE ( 'NONE', *, *, #163, .T. ) ;
#111 = EDGE_LOOP ( 'NONE', ( #134 ) ) ;
#112 = AXIS2_PLACEMENT_3D ( 'NONE', #99, #69, #180 ) ;
#113 = PRESENTATION_LAYER_ASSIGNMENT (  '', '', ( #27 ) ) ;
#114 =( NAMED_UNIT ( * ) PLANE_ANGLE_UNIT ( ) SI_UNIT ( $, .RADIAN. ) );
#115 = PRODUCT_DEFINITION_CONTEXT ( 'detailed design', #7, 'design' ) ;
#116 = CARTESIAN_POINT ( 'NONE',  ( 8.673617379884039259E-14, 74.00000000000000000, -8.500000000000015987 ) ) ;
#117 = DIRECTION ( 'NONE',  ( 0.000000000000000000, -1.000000000000000000, 0.000000000000000000 ) ) ;
#118 = AXIS2_PLACEMENT_3D ( 'NONE', #85, #158, #84 ) ;
#119 = DIRECTION ( 'NONE',  ( 1.000000000000000000, 0.000000000000000000, 0.000000000000000000 ) ) ;
#120 = DIRECTION ( 'NONE',  ( 0.000000000000000000, -1.000000000000000000, 0.000000000000000000 ) ) ;
#121 = TOROIDAL_SURFACE ( 'NONE', #153, 26.00000000000000000, 8.500000000000000000 ) ;
#122 = CARTESIAN_POINT ( 'NONE',  ( 26.00000000000000000, 74.00000000000000000, -1.561251128379124807E-14 ) ) ;
#123 = EDGE_CURVE ( 'NONE', #109, #109, #58, .T. ) ;
#124 = SURFACE_STYLE_FILL_AREA ( #90 ) ;
#125 = CARTESIAN_POINT ( 'NONE',  ( 26.00000000000000000, 74.00000000000000000, -1.561251128379124807E-14 ) ) ;
#126 = DIRECTION ( 'NONE',  ( 0.000000000000000000, 0.000000000000000000, -1.000000000000000000 ) ) ;
#127 = CARTESIAN_POINT ( 'NONE',  ( 0.000000000000000000, 74.00000000000000000, 10.00000000000000000 ) ) ;
#128 = ORIENTED_EDGE ( 'NONE', *, *, #29, .F. ) ;
#129 = CARTESIAN_POINT ( 'NONE',  ( 0.000000000000000000, 0.000000000000000000, 0.000000000000000000 ) ) ;
#130 = ORIENTED_EDGE ( 'NONE', *, *, #123, .T. ) ;
#131 = DIRECTION ( 'NONE',  ( 0.000000000000000000, 0.000000000000000000, -1.000000000000000000 ) ) ;
#132 = CARTESIAN_POINT ( 'NONE',  ( 26.00000000000000000, 91.50000000000000000, 0.000000000000000000 ) ) ;
#133 = EDGE_LOOP ( 'NONE', ( #24 ) ) ;
#134 = ORIENTED_EDGE ( 'NONE', *, *, #217, .T. ) ;
#135 = DIRECTION ( 'NONE',  ( 0.000000000000000000, -6.123233995736769734E-17, 1.000000000000000000 ) ) ;
#136 = DIRECTION ( 'NONE',  ( 0.000000000000000000, -1.000000000000000000, 0.000000000000000000 ) ) ;
#137 = AXIS2_PLACEMENT_3D ( 'NONE', #103, #8, #102 ) ;
#138 = CARTESIAN_POINT ( 'NONE',  ( 100.0000000000000000, 100.0000000000000000, 0.000000000000000000 ) ) ;
#139 = SURFACE_STYLE_FILL_AREA ( #68 ) ;
#140 = CIRCLE ( 'NONE', #183, 8.500000000000007105 ) ;
#141 = CARTESIAN_POINT ( 'NONE',  ( 100.0000000000000000, 100.0000000000000000, 0.000000000000000000 ) ) ;
#142 = AXIS2_PLACEMENT_3D ( 'NONE', #138, #119, #136 ) ;
#143 = DIRECTION ( 'NONE',  ( 0.000000000000000000, -6.123233995736769734E-17, 1.000000000000000000 ) ) ;
#144 = PRESENTATION_STYLE_ASSIGNMENT (( #239 ) ) ;
#145 = CIRCLE ( 'NONE', #242, 10.00000000000000000 ) ;
#146 = CARTESIAN_POINT ( 'NONE',  ( 0.000000000000000000, -6.123233995736770227E-16, 10.00000000000000000 ) ) ;
#147 =( LENGTH_UNIT ( ) NAMED_UNIT ( * ) SI_UNIT ( .MILLI., .METRE. ) );
#148 = AXIS2_PLACEMENT_3D ( 'NONE', #166, #226, #131 ) ;
#149 = VERTEX_POINT ( 'NONE', #60 ) ;
#150 = APPLICATION_CONTEXT ( 'automotive_design' ) ;
#151 = PRODUCT_CONTEXT ( 'NONE', #150, 'mechanical' ) ;
#152 = ORIENTED_EDGE ( 'NONE', *, *, #29, .T. ) ;
#153 = AXIS2_PLACEMENT_3D ( 'NONE', #122, #126, #56 ) ;
#154 = ORIENTED_EDGE ( 'NONE', *, *, #123, .F. ) ;
#155 = PRESENTATION_STYLE_ASSIGNMENT (( #81 ) ) ;
#156 = AXIS2_PLACEMENT_3D ( 'NONE', #213, #175, #4 ) ;
#157 =( GEOMETRIC_REPRESENTATION_CONTEXT ( 3 ) GLOBAL_UNCERTAINTY_ASSIGNED_CONTEXT ( ( #43 ) ) GLOBAL_UNIT_ASSIGNED_CONTEXT ( ( #106, #88, #70 ) ) REPRESENTATION_CONTEXT ( 'NONE', 'WORKASPACE' ) );
#158 = DIRECTION ( 'NONE',  ( 6.123233995736769734E-17, 1.000000000000000000, 0.000000000000000000 ) ) ;
#159 = CARTESIAN_POINT ( 'NONE',  ( 100.0000000000000000, 100.0000000000000000, 0.000000000000000000 ) ) ;
#160 = PRODUCT_RELATED_PRODUCT_CATEGORY ( 'part', '', ( #45 ) ) ;
#161 = STYLED_ITEM ( 'NONE', ( #12 ), #229 ) ;
#162 = DIRECTION ( 'NONE',  ( 0.000000000000000000, 1.000000000000000000, 6.123233995736769734E-17 ) ) ;
#163 = EDGE_CURVE ( 'NONE', #39, #39, #98, .T. ) ;
#164 =( GEOMETRIC_REPRESENTATION_CONTEXT ( 3 ) GLOBAL_UNCERTAINTY_ASSIGNED_CONTEXT ( ( #1 ) ) GLOBAL_UNIT_ASSIGNED_CONTEXT ( ( #202, #10, #221 ) ) REPRESENTATION_CONTEXT ( 'NONE', 'WORKASPACE' ) );
#165 = VERTEX_POINT ( 'NONE', #127 ) ;
#166 = CARTESIAN_POINT ( 'NONE',  ( 0.000000000000000000, 74.00000000000000000, 0.000000000000000000 ) ) ;
#167 = EDGE_LOOP ( 'NONE', ( #23 ) ) ;
#168 = COLOUR_RGB ( '',0.7490196078431372584, 0.7490196078431372584, 0.7490196078431372584 ) ;
#169 = DIRECTION ( 'NONE',  ( 1.000000000000000000, 0.000000000000000000, 0.000000000000000000 ) ) ;
#170 = SURFACE_STYLE_USAGE ( .BOTH. , #97 ) ;
#171 = UNCERTAINTY_MEASURE_WITH_UNIT (LENGTH_MEASURE( 1.000000000000000082E-05 ), #232, 'distance_accuracy_value', 'NONE');
#172 = EDGE_LOOP ( 'NONE', ( #212 ) ) ;
#173 = PLANE ( 'NONE',  #87 ) ;
#174 = SURFACE_SIDE_STYLE ('',( #139 ) ) ;
#175 = DIRECTION ( 'NONE',  ( 1.000000000000000000, 0.000000000000000000, 0.000000000000000000 ) ) ;
#176 = DIRECTION ( 'NONE',  ( 0.000000000000000000, 1.000000000000000000, 6.123233995736769734E-17 ) ) ;
#177 = AXIS2_PLACEMENT_3D ( 'NONE', #235, #31, #47 ) ;
#178 = DIRECTION ( 'NONE',  ( 1.000000000000000000, 0.000000000000000000, 0.000000000000000000 ) ) ;
#179 = SURFACE_STYLE_USAGE ( .BOTH. , #55 ) ;
#180 = DIRECTION ( 'NONE',  ( 0.000000000000000000, -1.000000000000000000, 0.000000000000000000 ) ) ;
#181 = ADVANCED_BREP_SHAPE_REPRESENTATION ( 'Assemblage1', ( #229, #234 ), #67 ) ;
#182 = FILL_AREA_STYLE_COLOUR ( '', #52 ) ;
#183 = AXIS2_PLACEMENT_3D ( 'NONE', #159, #178, #28 ) ;
#184 =( LENGTH_UNIT ( ) NAMED_UNIT ( * ) SI_UNIT ( .MILLI., .METRE. ) );
#185 = EDGE_LOOP ( 'NONE', ( #230 ) ) ;
#186 = EDGE_LOOP ( 'NONE', ( #110 ) ) ;
#187 = CARTESIAN_POINT ( 'NONE',  ( 0.000000000000000000, -5.204748896376254643E-16, 8.500000000000000000 ) ) ;
#188 = ORIENTED_EDGE ( 'NONE', *, *, #198, .F. ) ;
#189 =( GEOMETRIC_REPRESENTATION_CONTEXT ( 3 ) GLOBAL_UNCERTAINTY_ASSIGNED_CONTEXT ( ( #171 ) ) GLOBAL_UNIT_ASSIGNED_CONTEXT ( ( #232, #48, #30 ) ) REPRESENTATION_CONTEXT ( 'NONE', 'WORKASPACE' ) );
#190 = EDGE_LOOP ( 'NONE', ( #75 ) ) ;
#191 = VERTEX_POINT ( 'NONE', #146 ) ;
#192 = FACE_OUTER_BOUND ( 'NONE', #19, .T. ) ;
#193 = AXIS2_PLACEMENT_3D ( 'NONE', #125, #73, #11 ) ;
#194 = FACE_OUTER_BOUND ( 'NONE', #133, .T. ) ;
#195 = ADVANCED_FACE ( 'NONE', ( #86, #194 ), #219, .T. ) ;
#196 = DIRECTION ( 'NONE',  ( 0.000000000000000000, 0.000000000000000000, -1.000000000000000000 ) ) ;
#197 = CIRCLE ( 'NONE', #156, 10.00000000000000000 ) ;
#198 = EDGE_CURVE ( 'NONE', #227, #227, #214, .T. ) ;
#199 = CYLINDRICAL_SURFACE ( 'NONE', #204, 10.00000000000000000 ) ;
#200 = DIRECTION ( 'NONE',  ( 0.000000000000000000, 0.000000000000000000, 1.000000000000000000 ) ) ;
#201 = ADVANCED_FACE ( 'NONE', ( #238, #89 ), #15, .F. ) ;
#202 =( LENGTH_UNIT ( ) NAMED_UNIT ( * ) SI_UNIT ( .MILLI., .METRE. ) );
#203 = DIRECTION ( 'NONE',  ( -1.000000000000000000, 0.000000000000000000, 0.000000000000000000 ) ) ;
#204 = AXIS2_PLACEMENT_3D ( 'NONE', #51, #6, #218 ) ;
#205 = FACE_OUTER_BOUND ( 'NONE', #228, .T. ) ;
#206 = EDGE_LOOP ( 'NONE', ( #96 ) ) ;
#207 = CARTESIAN_POINT ( 'NONE',  ( 100.0000000000000000, 90.00000000000001421, 0.000000000000000000 ) ) ;
#208 = EDGE_LOOP ( 'NONE', ( #130 ) ) ;
#209 =( NAMED_UNIT ( * ) SI_UNIT ( $, .STERADIAN. ) SOLID_ANGLE_UNIT ( ) );
#210 = EDGE_LOOP ( 'NONE', ( #152 ) ) ;
#211 = MECHANICAL_DESIGN_GEOMETRIC_PRESENTATION_REPRESENTATION (  '', ( #233 ), #164 ) ;
#212 = ORIENTED_EDGE ( 'NONE', *, *, #41, .F. ) ;
#213 = CARTESIAN_POINT ( 'NONE',  ( 26.00000000000000000, 100.0000000000000000, -1.561251128379124807E-14 ) ) ;
#214 = CIRCLE ( 'NONE', #112, 8.500000000000007105 ) ;
#215 = CARTESIAN_POINT ( 'NONE',  ( 0.000000000000000000, 74.00000000000000000, 0.000000000000000000 ) ) ;
#216 = CARTESIAN_POINT ( 'NONE',  ( 0.000000000000000000, 0.000000000000000000, 0.000000000000000000 ) ) ;
#217 = EDGE_CURVE ( 'NONE', #191, #191, #145, .T. ) ;
#218 = DIRECTION ( 'NONE',  ( 0.000000000000000000, 0.000000000000000000, 1.000000000000000000 ) ) ;
#219 = TOROIDAL_SURFACE ( 'NONE', #193, 26.00000000000000000, 10.00000000000000000 ) ;
#220 = COLOUR_RGB ( '',0.7921568627450980005, 0.8196078431372548767, 0.9333333333333333481 ) ;
#221 =( NAMED_UNIT ( * ) SI_UNIT ( $, .STERADIAN. ) SOLID_ANGLE_UNIT ( ) );
#222 = APPLICATION_PROTOCOL_DEFINITION ( 'draft international standard', 'automotive_design', 1998, #150 ) ;
#223 = EDGE_LOOP ( 'NONE', ( #65 ) ) ;
#224 = APPLICATION_PROTOCOL_DEFINITION ( 'draft international standard', 'automotive_design', 1998, #7 ) ;
#225 = ADVANCED_FACE ( 'NONE', ( #107, #53 ), #121, .F. ) ;
#226 = DIRECTION ( 'NONE',  ( 0.000000000000000000, -1.000000000000000000, 0.000000000000000000 ) ) ;
#227 = VERTEX_POINT ( 'NONE', #132 ) ;
#228 = EDGE_LOOP ( 'NONE', ( #154 ) ) ;
#229 = MANIFOLD_SOLID_BREP ( 'Importée1', #79 ) ;
#230 = ORIENTED_EDGE ( 'NONE', *, *, #82, .T. ) ;
#231 = STYLED_ITEM ( 'NONE', ( #155 ), #195 ) ;
#232 =( LENGTH_UNIT ( ) NAMED_UNIT ( * ) SI_UNIT ( .MILLI., .METRE. ) );
#233 = STYLED_ITEM ( 'NONE', ( #144 ), #225 ) ;
#234 = AXIS2_PLACEMENT_3D ( 'NONE', #129, #16, #241 ) ;
#235 = CARTESIAN_POINT ( 'NONE',  ( 0.000000000000000000, 74.00000000000000000, 0.000000000000000000 ) ) ;
#236 = PRODUCT_DEFINITION ( 'UNKNOWN', '', #20, #115 ) ;
#237 = FILL_AREA_STYLE_COLOUR ( '', #76 ) ;
#238 = FACE_OUTER_BOUND ( 'NONE', #167, .T. ) ;
#239 = SURFACE_STYLE_USAGE ( .BOTH. , #92 ) ;
#240 = AXIS2_PLACEMENT_3D ( 'NONE', #216, #176, #135 ) ;
#241 = DIRECTION ( 'NONE',  ( 1.000000000000000000, 0.000000000000000000, 0.000000000000000000 ) ) ;
#242 = AXIS2_PLACEMENT_3D ( 'NONE', #36, #162, #143 ) ;
#243 = EDGE_LOOP ( 'NONE', ( #80 ) ) ;
#244 = CARTESIAN_POINT ( 'NONE',  ( 26.00000000000000000, 100.0000000000000000, -10.00000000000001599 ) ) ;
ENDSEC;
END-ISO-10303-21;
