ISO-10303-21;
HEADER;
FILE_DESCRIPTION (( 'STEP AP214' ),
    '1' );
FILE_NAME ('Pièce1.STEP',
    '2023-08-31T09:05:51',
    ( '' ),
    ( '' ),
    'SwSTEP 2.0',
    'SolidWorks 2022',
    '' );
FILE_SCHEMA (( 'AUTOMOTIVE_DESIGN' ));
ENDSEC;

DATA;
#1 = DIRECTION ( 'NONE',  ( -0.000000000000000000, -0.000000000000000000, -1.000000000000000000 ) ) ;
#2 = CARTESIAN_POINT ( 'NONE',  ( 25.00000000000000000, 25.00000000000000355, 77.22431864335517560 ) ) ;
#3 = CARTESIAN_POINT ( 'NONE',  ( -25.00000000000000000, 25.00000000000000355, 77.22431864335517560 ) ) ;
#4 =( NAMED_UNIT ( * ) PLANE_ANGLE_UNIT ( ) SI_UNIT ( $, .RADIAN. ) );
#5 = AXIS2_PLACEMENT_3D ( 'NONE', #110, #48, #80 ) ;
#6 = EDGE_LOOP ( 'NONE', ( #335 ) ) ;
#7 = LINE ( 'NONE', #62, #185 ) ;
#8 = CARTESIAN_POINT ( 'NONE',  ( -25.00000000000000000, 0.000000000000000000, 100.0000000000000000 ) ) ;
#9 = AXIS2_PLACEMENT_3D ( 'NONE', #3, #156, #40 ) ;
#10 = ORIENTED_EDGE ( 'NONE', *, *, #330, .F. ) ;
#11 = ADVANCED_FACE ( 'NONE', ( #142 ), #231, .T. ) ;
#12 = LINE ( 'NONE', #124, #283 ) ;
#13 = MECHANICAL_DESIGN_GEOMETRIC_PRESENTATION_REPRESENTATION (  '', ( #371 ), #141 ) ;
#14 = DIRECTION ( 'NONE',  ( 1.000000000000000000, 0.000000000000000000, 0.000000000000000000 ) ) ;
#15 = ORIENTED_EDGE ( 'NONE', *, *, #51, .F. ) ;
#16 = DIRECTION ( 'NONE',  ( 1.000000000000000000, 0.000000000000000000, 0.000000000000000000 ) ) ;
#17 = PRODUCT_DEFINITION_SHAPE ( 'NONE', 'NONE',  #79 ) ;
#18 = ORIENTED_EDGE ( 'NONE', *, *, #254, .F. ) ;
#19 = SURFACE_SIDE_STYLE ('',( #277 ) ) ;
#20 = EDGE_CURVE ( 'NONE', #331, #331, #170, .T. ) ;
#21 = ORIENTED_EDGE ( 'NONE', *, *, #63, .T. ) ;
#22 = VERTEX_POINT ( 'NONE', #346 ) ;
#23 = ADVANCED_FACE ( 'NONE', ( #286 ), #205, .F. ) ;
#24 = VECTOR ( 'NONE', #352, 999.9999999999998863 ) ;
#25 = AXIS2_PLACEMENT_3D ( 'NONE', #230, #378, #29 ) ;
#26 = VERTEX_POINT ( 'NONE', #147 ) ;
#27 = CARTESIAN_POINT ( 'NONE',  ( -25.00000000000000000, 0.000000000000000000, 0.000000000000000000 ) ) ;
#28 = LINE ( 'NONE', #27, #244 ) ;
#29 = DIRECTION ( 'NONE',  ( 0.000000000000000000, -0.000000000000000000, 1.000000000000000000 ) ) ;
#30 = DIRECTION ( 'NONE',  ( 0.000000000000000000, 0.9659258262890699775, -0.2588190451025143557 ) ) ;
#31 = CARTESIAN_POINT ( 'NONE',  ( -25.00000000000000000, 25.00000000000000355, 77.22431864335517560 ) ) ;
#32 = DIRECTION ( 'NONE',  ( 0.000000000000000000, 0.9659258262890699775, -0.2588190451025143002 ) ) ;
#33 = DIRECTION ( 'NONE',  ( 1.000000000000000000, 0.000000000000000000, 0.000000000000000000 ) ) ;
#34 = LINE ( 'NONE', #211, #165 ) ;
#35 = MECHANICAL_DESIGN_GEOMETRIC_PRESENTATION_REPRESENTATION (  '', ( #120 ), #203 ) ;
#36 = DIRECTION ( 'NONE',  ( 1.156482317317871478E-16, 1.000000000000000000, 0.000000000000000000 ) ) ;
#37 = DIRECTION ( 'NONE',  ( 0.000000000000000000, -0.2588190451025143002, -0.9659258262890699775 ) ) ;
#38 = SURFACE_STYLE_USAGE ( .BOTH. , #56 ) ;
#39 = CIRCLE ( 'NONE', #225, 25.00000000000000000 ) ;
#40 = DIRECTION ( 'NONE',  ( 0.000000000000000000, 0.9659258262890699775, -0.2588190451025143002 ) ) ;
#41 = CIRCLE ( 'NONE', #108, 7.500000000000023093 ) ;
#42 = ORIENTED_EDGE ( 'NONE', *, *, #220, .F. ) ;
#43 = PRESENTATION_STYLE_ASSIGNMENT (( #133 ) ) ;
#44 =( NAMED_UNIT ( * ) SI_UNIT ( $, .STERADIAN. ) SOLID_ANGLE_UNIT ( ) );
#45 = ADVANCED_FACE ( 'NONE', ( #375 ), #199, .T. ) ;
#46 = ORIENTED_EDGE ( 'NONE', *, *, #198, .F. ) ;
#47 = FACE_OUTER_BOUND ( 'NONE', #268, .T. ) ;
#48 = DIRECTION ( 'NONE',  ( -0.000000000000000000, -0.000000000000000000, -1.000000000000000000 ) ) ;
#49 = DIRECTION ( 'NONE',  ( -1.000000000000000000, 1.156482317317871725E-16, 0.000000000000000000 ) ) ;
#50 = PRODUCT_DEFINITION_FORMATION_WITH_SPECIFIED_SOURCE ( 'ANY', '', #131, .NOT_KNOWN. ) ;
#51 = EDGE_CURVE ( 'NONE', #26, #145, #285, .T. ) ;
#52 = ORIENTED_EDGE ( 'NONE', *, *, #363, .F. ) ;
#53 = VECTOR ( 'NONE', #1, 1000.000000000000000 ) ;
#54 = CYLINDRICAL_SURFACE ( 'NONE', #159, 20.00000000000000000 ) ;
#55 = VECTOR ( 'NONE', #201, 1000.000000000000000 ) ;
#56 = SURFACE_SIDE_STYLE ('',( #267 ) ) ;
#57 = ADVANCED_FACE ( 'NONE', ( #82 ), #54, .F. ) ;
#58 = ORIENTED_EDGE ( 'NONE', *, *, #232, .T. ) ;
#59 = ORIENTED_EDGE ( 'NONE', *, *, #20, .T. ) ;
#60 = DIRECTION ( 'NONE',  ( 1.156482317317871725E-16, -1.000000000000000000, 0.000000000000000000 ) ) ;
#61 = LINE ( 'NONE', #178, #68 ) ;
#62 = CARTESIAN_POINT ( 'NONE',  ( -25.00000000000000000, -55.00000000000000711, 93.48387313579401336 ) ) ;
#63 = EDGE_CURVE ( 'NONE', #373, #128, #235, .T. ) ;
#64 = LINE ( 'NONE', #91, #140 ) ;
#65 = DIRECTION ( 'NONE',  ( 0.000000000000000000, 0.000000000000000000, 1.000000000000000000 ) ) ;
#66 = CARTESIAN_POINT ( 'NONE',  ( 25.00000000000000000, -60.00000000000000000, 100.0000000000000000 ) ) ;
#67 = DIRECTION ( 'NONE',  ( -0.000000000000000000, -0.000000000000000000, -1.000000000000000000 ) ) ;
#68 = VECTOR ( 'NONE', #14, 1000.000000000000000 ) ;
#69 = ORIENTED_EDGE ( 'NONE', *, *, #123, .T. ) ;
#70 = DIRECTION ( 'NONE',  ( 1.117076137943963576E-16, 0.9659258262890699775, -0.2588190451025143002 ) ) ;
#71 = ORIENTED_EDGE ( 'NONE', *, *, #86, .F. ) ;
#72 = EDGE_CURVE ( 'NONE', #132, #366, #28, .T. ) ;
#73 = EDGE_LOOP ( 'NONE', ( #382, #281, #224, #130 ) ) ;
#74 = DIRECTION ( 'NONE',  ( 1.000000000000000000, 0.000000000000000000, 0.000000000000000000 ) ) ;
#75 = VECTOR ( 'NONE', #182, 999.9999999999998863 ) ;
#76 = EDGE_CURVE ( 'NONE', #137, #139, #83, .T. ) ;
#77 = ORIENTED_EDGE ( 'NONE', *, *, #134, .F. ) ;
#78 = PRODUCT_CONTEXT ( 'NONE', #188, 'mechanical' ) ;
#79 = PRODUCT_DEFINITION ( 'UNKNOWN', '', #50, #229 ) ;
#80 = DIRECTION ( 'NONE',  ( -1.000000000000000000, 0.000000000000000000, 0.000000000000000000 ) ) ;
#81 = UNCERTAINTY_MEASURE_WITH_UNIT (LENGTH_MEASURE( 1.000000000000000082E-05 ), #279, 'distance_accuracy_value', 'NONE');
#82 = FACE_OUTER_BOUND ( 'NONE', #191, .T. ) ;
#83 = LINE ( 'NONE', #143, #55 ) ;
#84 = CARTESIAN_POINT ( 'NONE',  ( 25.00000000000001066, 50.00000000000000000, 70.52558883257727018 ) ) ;
#85 = ORIENTED_EDGE ( 'NONE', *, *, #290, .F. ) ;
#86 = EDGE_CURVE ( 'NONE', #296, #296, #41, .T. ) ;
#87 = PLANE ( 'NONE',  #257 ) ;
#88 = DIRECTION ( 'NONE',  ( 0.000000000000000000, 0.000000000000000000, 1.000000000000000000 ) ) ;
#89 = VERTEX_POINT ( 'NONE', #169 ) ;
#90 = FACE_OUTER_BOUND ( 'NONE', #301, .T. ) ;
#91 = CARTESIAN_POINT ( 'NONE',  ( -19.99999999999999289, -55.00000000000000000, 100.0000000000000000 ) ) ;
#92 = VERTEX_POINT ( 'NONE', #146 ) ;
#93 = CARTESIAN_POINT ( 'NONE',  ( 24.99999999999999289, -60.00000000000000000, 100.0000000000000000 ) ) ;
#94 = CARTESIAN_POINT ( 'NONE',  ( 0.000000000000000000, -24.99999999999940670, -9.378221735089203648 ) ) ;
#95 = DIRECTION ( 'NONE',  ( -1.000000000000000000, 1.156482317317871725E-16, 0.000000000000000000 ) ) ;
#96 = CARTESIAN_POINT ( 'NONE',  ( -20.00000000000001066, 39.99999999999998579, 68.02869985483803816 ) ) ;
#97 = EDGE_LOOP ( 'NONE', ( #58, #10, #52, #15 ) ) ;
#98 = DIRECTION ( 'NONE',  ( 0.000000000000000000, 1.000000000000000000, 0.000000000000000000 ) ) ;
#99 = ORIENTED_EDGE ( 'NONE', *, *, #63, .F. ) ;
#100 = PLANE ( 'NONE',  #302 ) ;
#101 = ORIENTED_EDGE ( 'NONE', *, *, #316, .F. ) ;
#102 = FILL_AREA_STYLE_COLOUR ( '', #265 ) ;
#103 = ORIENTED_EDGE ( 'NONE', *, *, #258, .T. ) ;
#104 = ORIENTED_EDGE ( 'NONE', *, *, #20, .F. ) ;
#105 = ADVANCED_FACE ( 'NONE', ( #47 ), #112, .T. ) ;
#106 = EDGE_LOOP ( 'NONE', ( #103, #280, #99, #256 ) ) ;
#107 = AXIS2_PLACEMENT_3D ( 'NONE', #94, #360, #332 ) ;
#108 = AXIS2_PLACEMENT_3D ( 'NONE', #374, #287, #30 ) ;
#109 = DIRECTION ( 'NONE',  ( 0.000000000000000000, 0.9659258262890699775, -0.2588190451025143557 ) ) ;
#110 = CARTESIAN_POINT ( 'NONE',  ( 0.000000000000000000, 0.000000000000000000, 100.0000000000000000 ) ) ;
#111 = EDGE_CURVE ( 'NONE', #247, #163, #249, .T. ) ;
#112 = PLANE ( 'NONE',  #288 ) ;
#113 = LINE ( 'NONE', #160, #157 ) ;
#114 = ADVANCED_FACE ( 'NONE', ( #349 ), #87, .F. ) ;
#115 = CARTESIAN_POINT ( 'NONE',  ( 24.99999999999999289, -60.00000000000000000, 0.000000000000000000 ) ) ;
#116 = AXIS2_PLACEMENT_3D ( 'NONE', #216, #98, #263 ) ;
#117 = CARTESIAN_POINT ( 'NONE',  ( 25.00000000000000000, -6.938893903907228378E-15, 83.92304845413306680 ) ) ;
#118 = CARTESIAN_POINT ( 'NONE',  ( -25.00000000000000000, 23.70590477448743272, 72.39468951190981727 ) ) ;
#119 = LINE ( 'NONE', #238, #350 ) ;
#120 = STYLED_ITEM ( 'NONE', ( #43 ), #148 ) ;
#121 = FACE_OUTER_BOUND ( 'NONE', #356, .T. ) ;
#122 = CLOSED_SHELL ( 'NONE', ( #11, #114, #23, #294, #266, #348, #57, #45, #309, #105, #337, #202 ) ) ;
#123 = EDGE_CURVE ( 'NONE', #145, #137, #194, .T. ) ;
#124 = CARTESIAN_POINT ( 'NONE',  ( 20.00000000000000355, 23.70590477448742917, 72.39468951190981727 ) ) ;
#125 = VECTOR ( 'NONE', #315, 1000.000000000000000 ) ;
#126 = CARTESIAN_POINT ( 'NONE',  ( -24.99999999999999289, -60.00000000000000000, 0.000000000000000000 ) ) ;
#127 = LINE ( 'NONE', #126, #321 ) ;
#128 = VERTEX_POINT ( 'NONE', #66 ) ;
#129 = CARTESIAN_POINT ( 'NONE',  ( 24.99999999999999289, -60.00000000000000000, 100.0000000000000000 ) ) ;
#130 = ORIENTED_EDGE ( 'NONE', *, *, #72, .T. ) ;
#131 = PRODUCT ( 'Pi\X2\00e8\X0\ce1', 'Pi\X2\00e8\X0\ce1', '', ( #78 ) ) ;
#132 = VERTEX_POINT ( 'NONE', #155 ) ;
#133 = SURFACE_STYLE_USAGE ( .BOTH. , #19 ) ;
#134 = EDGE_CURVE ( 'NONE', #89, #260, #217, .T. ) ;
#135 = ORIENTED_EDGE ( 'NONE', *, *, #297, .T. ) ;
#136 = DIRECTION ( 'NONE',  ( 0.000000000000000000, 0.000000000000000000, 1.000000000000000000 ) ) ;
#137 = VERTEX_POINT ( 'NONE', #208 ) ;
#138 = PRODUCT_RELATED_PRODUCT_CATEGORY ( 'part', '', ( #131 ) ) ;
#139 = VERTEX_POINT ( 'NONE', #270 ) ;
#140 = VECTOR ( 'NONE', #328, 1000.000000000000000 ) ;
#141 =( GEOMETRIC_REPRESENTATION_CONTEXT ( 3 ) GLOBAL_UNCERTAINTY_ASSIGNED_CONTEXT ( ( #166 ) ) GLOBAL_UNIT_ASSIGNED_CONTEXT ( ( #380, #4, #291 ) ) REPRESENTATION_CONTEXT ( 'NONE', 'WORKASPACE' ) );
#142 = FACE_OUTER_BOUND ( 'NONE', #167, .T. ) ;
#143 = CARTESIAN_POINT ( 'NONE',  ( 20.00000000000000000, 2.449293598294706513E-15, 100.0000000000000000 ) ) ;
#144 = DIRECTION ( 'NONE',  ( -1.156482317317871725E-16, -1.000000000000000000, 0.000000000000000000 ) ) ;
#145 = VERTEX_POINT ( 'NONE', #292 ) ;
#146 = CARTESIAN_POINT ( 'NONE',  ( 19.99999999999999289, -55.00000000000000000, 93.48387313579401336 ) ) ;
#147 = CARTESIAN_POINT ( 'NONE',  ( -19.99999999999999289, -55.00000000000000000, 93.48387313579401336 ) ) ;
#148 = ADVANCED_BREP_SHAPE_REPRESENTATION ( 'Pi\X2\00e8\X0\ce1', ( #161, #234 ), #368 ) ;
#149 = LINE ( 'NONE', #93, #318 ) ;
#150 = CYLINDRICAL_SURFACE ( 'NONE', #107, 7.500000000000021316 ) ;
#151 = EDGE_LOOP ( 'NONE', ( #340, #218, #21, #353 ) ) ;
#152 = LINE ( 'NONE', #272, #53 ) ;
#153 = EDGE_CURVE ( 'NONE', #128, #163, #261, .T. ) ;
#154 = FACE_BOUND ( 'NONE', #6, .T. ) ;
#155 = CARTESIAN_POINT ( 'NONE',  ( -25.00000000000000000, 0.000000000000000000, 0.000000000000000000 ) ) ;
#156 = DIRECTION ( 'NONE',  ( 0.000000000000000000, -0.2588190451025143002, -0.9659258262890699775 ) ) ;
#157 = VECTOR ( 'NONE', #359, 1000.000000000000000 ) ;
#158 = CARTESIAN_POINT ( 'NONE',  ( -25.00000000000000000, 0.000000000000000000, 83.92304845413306680 ) ) ;
#159 = AXIS2_PLACEMENT_3D ( 'NONE', #284, #319, #200 ) ;
#160 = CARTESIAN_POINT ( 'NONE',  ( 19.99999999999999289, -60.00000000000000000, 0.000000000000000000 ) ) ;
#161 = MANIFOLD_SOLID_BREP ( 'Enlèv. mat.-Extru.3', #122 ) ;
#162 = ORIENTED_EDGE ( 'NONE', *, *, #153, .F. ) ;
#163 = VERTEX_POINT ( 'NONE', #117 ) ;
#164 = CARTESIAN_POINT ( 'NONE',  ( -20.00000000000000000, 5.782411586589358625E-16, 100.0000000000000000 ) ) ;
#165 = VECTOR ( 'NONE', #181, 1000.000000000000000 ) ;
#166 = UNCERTAINTY_MEASURE_WITH_UNIT (LENGTH_MEASURE( 1.000000000000000082E-05 ), #380, 'distance_accuracy_value', 'NONE');
#167 = EDGE_LOOP ( 'NONE', ( #250, #226, #377, #179 ) ) ;
#168 = VECTOR ( 'NONE', #67, 1000.000000000000000 ) ;
#169 = CARTESIAN_POINT ( 'NONE',  ( 24.99999999999999289, -60.00000000000000000, 0.000000000000000000 ) ) ;
#170 = CIRCLE ( 'NONE', #351, 7.500000000000023981 ) ;
#171 = AXIS2_PLACEMENT_3D ( 'NONE', #118, #37, #32 ) ;
#172 = PRESENTATION_LAYER_ASSIGNMENT (  '', '', ( #371 ) ) ;
#173 = CARTESIAN_POINT ( 'NONE',  ( -24.99999999999999289, -60.00000000000000000, 100.0000000000000000 ) ) ;
#174 = FACE_OUTER_BOUND ( 'NONE', #361, .T. ) ;
#175 = VERTEX_POINT ( 'NONE', #236 ) ;
#176 = EDGE_CURVE ( 'NONE', #373, #247, #241, .T. ) ;
#177 = CARTESIAN_POINT ( 'NONE',  ( -25.00000000000000000, 0.000000000000000000, 100.0000000000000000 ) ) ;
#178 = CARTESIAN_POINT ( 'NONE',  ( -24.99999999999999289, -55.00000000000000000, 0.000000000000000000 ) ) ;
#179 = ORIENTED_EDGE ( 'NONE', *, *, #320, .F. ) ;
#180 = FACE_OUTER_BOUND ( 'NONE', #306, .T. ) ;
#181 = DIRECTION ( 'NONE',  ( 0.000000000000000000, 0.000000000000000000, -1.000000000000000000 ) ) ;
#182 = DIRECTION ( 'NONE',  ( -0.000000000000000000, 0.9659258262890700886, -0.2588190451025143557 ) ) ;
#183 = ORIENTED_EDGE ( 'NONE', *, *, #376, .T. ) ;
#184 = CARTESIAN_POINT ( 'NONE',  ( -20.00000000000000000, 5.782411586589358625E-16, 0.000000000000000000 ) ) ;
#185 = VECTOR ( 'NONE', #365, 1000.000000000000000 ) ;
#186 = EDGE_LOOP ( 'NONE', ( #59 ) ) ;
#187 = VECTOR ( 'NONE', #322, 1000.000000000000114 ) ;
#188 = APPLICATION_CONTEXT ( 'automotive_design' ) ;
#189 = CARTESIAN_POINT ( 'NONE',  ( -20.00000000000000000, 5.782411586589358625E-16, 0.000000000000000000 ) ) ;
#190 = ORIENTED_EDGE ( 'NONE', *, *, #330, .T. ) ;
#191 = EDGE_LOOP ( 'NONE', ( #252, #312, #18, #276 ) ) ;
#192 = SHAPE_DEFINITION_REPRESENTATION ( #17, #148 ) ;
#193 = EDGE_LOOP ( 'NONE', ( #104 ) ) ;
#194 =( BOUNDED_CURVE ( )  B_SPLINE_CURVE ( 3, ( #334, #96, #212, #214 ),
 .UNSPECIFIED., .F., .T. ) 
 B_SPLINE_CURVE_WITH_KNOTS ( ( 4, 4 ),
 ( 4.712388980384689674, 7.853981633974482790 ),
 .UNSPECIFIED. ) 
 CURVE ( )  GEOMETRIC_REPRESENTATION_ITEM ( )  RATIONAL_B_SPLINE_CURVE ( ( 1.000000000000000000, 0.3333333333333333703, 0.3333333333333333703, 1.000000000000000000 ) ) 
 REPRESENTATION_ITEM ( '' )  );
#195 = VECTOR ( 'NONE', #36, 1000.000000000000000 ) ;
#196 = CARTESIAN_POINT ( 'NONE',  ( 0.000000000000000000, 0.000000000000000000, 0.000000000000000000 ) ) ;
#197 = EDGE_LOOP ( 'NONE', ( #275, #215, #190, #262 ) ) ;
#198 = EDGE_CURVE ( 'NONE', #260, #132, #39, .T. ) ;
#199 = PLANE ( 'NONE',  #207 ) ;
#200 = DIRECTION ( 'NONE',  ( -1.000000000000000000, 0.000000000000000000, 0.000000000000000000 ) ) ;
#201 = DIRECTION ( 'NONE',  ( -0.000000000000000000, -0.000000000000000000, -1.000000000000000000 ) ) ;
#202 = ADVANCED_FACE ( 'NONE', ( #326, #174 ), #150, .F. ) ;
#203 =( GEOMETRIC_REPRESENTATION_CONTEXT ( 3 ) GLOBAL_UNCERTAINTY_ASSIGNED_CONTEXT ( ( #81 ) ) GLOBAL_UNIT_ASSIGNED_CONTEXT ( ( #279, #251, #343 ) ) REPRESENTATION_CONTEXT ( 'NONE', 'WORKASPACE' ) );
#204 = DIRECTION ( 'NONE',  ( 1.000000000000000000, 1.156482317317871725E-16, -0.000000000000000000 ) ) ;
#205 = PLANE ( 'NONE',  #25 ) ;
#206 = VECTOR ( 'NONE', #60, 1000.000000000000000 ) ;
#207 = AXIS2_PLACEMENT_3D ( 'NONE', #164, #204, #289 ) ;
#208 = CARTESIAN_POINT ( 'NONE',  ( 20.00000000000000000, 2.449293598294706513E-15, 78.74666755208265556 ) ) ;
#209 = APPLICATION_CONTEXT ( 'automotive_design' ) ;
#210 = FILL_AREA_STYLE_COLOUR ( '', #323 ) ;
#211 = CARTESIAN_POINT ( 'NONE',  ( 19.99999999999999289, -55.00000000000000000, 100.0000000000000000 ) ) ;
#212 = CARTESIAN_POINT ( 'NONE',  ( 20.00000000000000000, 39.99999999999999289, 68.02869985483803816 ) ) ;
#213 = DIRECTION ( 'NONE',  ( -0.000000000000000000, -0.000000000000000000, -1.000000000000000000 ) ) ;
#214 = CARTESIAN_POINT ( 'NONE',  ( 20.00000000000000000, 2.449293598294706513E-15, 78.74666755208265556 ) ) ;
#215 = ORIENTED_EDGE ( 'NONE', *, *, #254, .T. ) ;
#216 = CARTESIAN_POINT ( 'NONE',  ( -24.99999999999999289, -55.00000000000000000, 100.0000000000000000 ) ) ;
#217 = LINE ( 'NONE', #115, #195 ) ;
#218 = ORIENTED_EDGE ( 'NONE', *, *, #176, .F. ) ;
#219 = CARTESIAN_POINT ( 'NONE',  ( -24.99999999999999289, -60.00000000000000000, 100.0000000000000000 ) ) ;
#220 = EDGE_CURVE ( 'NONE', #163, #260, #119, .T. ) ;
#221 = FACE_OUTER_BOUND ( 'NONE', #304, .T. ) ;
#222 = ORIENTED_EDGE ( 'NONE', *, *, #242, .F. ) ;
#223 = ORIENTED_EDGE ( 'NONE', *, *, #76, .T. ) ;
#224 = ORIENTED_EDGE ( 'NONE', *, *, #320, .T. ) ;
#225 = AXIS2_PLACEMENT_3D ( 'NONE', #358, #88, #33 ) ;
#226 = ORIENTED_EDGE ( 'NONE', *, *, #220, .T. ) ;
#227 = FILL_AREA_STYLE ('',( #102 ) ) ;
#228 = CARTESIAN_POINT ( 'NONE',  ( 25.00000000000000000, -6.938893903907228378E-15, 83.92304845413306680 ) ) ;
#229 = PRODUCT_DEFINITION_CONTEXT ( 'detailed design', #209, 'design' ) ;
#230 = CARTESIAN_POINT ( 'NONE',  ( -24.99999999999999289, -60.00000000000000000, 100.0000000000000000 ) ) ;
#231 = CYLINDRICAL_SURFACE ( 'NONE', #5, 25.00000000000000000 ) ;
#232 = EDGE_CURVE ( 'NONE', #26, #175, #64, .T. ) ;
#233 = CARTESIAN_POINT ( 'NONE',  ( 0.000000000000000000, -1.294095225512555070, 79.09341932268770847 ) ) ;
#234 = AXIS2_PLACEMENT_3D ( 'NONE', #196, #136, #74 ) ;
#235 = LINE ( 'NONE', #173, #125 ) ;
#236 = CARTESIAN_POINT ( 'NONE',  ( -19.99999999999999289, -55.00000000000000000, 0.000000000000000000 ) ) ;
#237 = CARTESIAN_POINT ( 'NONE',  ( -24.99999999999999289, -60.00000000000000000, 100.0000000000000000 ) ) ;
#238 = CARTESIAN_POINT ( 'NONE',  ( 25.00000000000000000, 0.000000000000000000, 100.0000000000000000 ) ) ;
#239 = ORIENTED_EDGE ( 'NONE', *, *, #282, .F. ) ;
#240 = FACE_BOUND ( 'NONE', #186, .T. ) ;
#241 = LINE ( 'NONE', #31, #24 ) ;
#242 = EDGE_CURVE ( 'NONE', #175, #22, #61, .T. ) ;
#243 = CARTESIAN_POINT ( 'NONE',  ( 0.000000000000000000, 0.000000000000000000, 0.000000000000000000 ) ) ;
#244 = VECTOR ( 'NONE', #344, 1000.000000000000000 ) ;
#245 = LINE ( 'NONE', #177, #381 ) ;
#246 = CARTESIAN_POINT ( 'NONE',  ( 0.000000000000000000, 0.000000000000000000, 0.000000000000000000 ) ) ;
#247 = VERTEX_POINT ( 'NONE', #158 ) ;
#248 = PLANE ( 'NONE',  #255 ) ;
#249 =( BOUNDED_CURVE ( )  B_SPLINE_CURVE ( 3, ( #347, #372, #84, #228 ),
 .UNSPECIFIED., .F., .T. ) 
 B_SPLINE_CURVE_WITH_KNOTS ( ( 4, 4 ),
 ( 4.712388980384689674, 7.853981633974482790 ),
 .UNSPECIFIED. ) 
 CURVE ( )  GEOMETRIC_REPRESENTATION_ITEM ( )  RATIONAL_B_SPLINE_CURVE ( ( 1.000000000000000000, 0.3333333333333333703, 0.3333333333333333703, 1.000000000000000000 ) ) 
 REPRESENTATION_ITEM ( '' )  );
#250 = ORIENTED_EDGE ( 'NONE', *, *, #111, .T. ) ;
#251 =( NAMED_UNIT ( * ) PLANE_ANGLE_UNIT ( ) SI_UNIT ( $, .RADIAN. ) );
#252 = ORIENTED_EDGE ( 'NONE', *, *, #123, .F. ) ;
#253 = PRESENTATION_LAYER_ASSIGNMENT (  '', '', ( #120 ) ) ;
#254 = EDGE_CURVE ( 'NONE', #139, #339, #370, .T. ) ;
#255 = AXIS2_PLACEMENT_3D ( 'NONE', #243, #65, #303 ) ;
#256 = ORIENTED_EDGE ( 'NONE', *, *, #379, .T. ) ;
#257 = AXIS2_PLACEMENT_3D ( 'NONE', #8, #295, #298 ) ;
#258 = EDGE_CURVE ( 'NONE', #366, #89, #127, .T. ) ;
#259 = ORIENTED_EDGE ( 'NONE', *, *, #290, .T. ) ;
#260 = VERTEX_POINT ( 'NONE', #327 ) ;
#261 = LINE ( 'NONE', #2, #75 ) ;
#262 = ORIENTED_EDGE ( 'NONE', *, *, #242, .T. ) ;
#263 = DIRECTION ( 'NONE',  ( 0.000000000000000000, -0.000000000000000000, 1.000000000000000000 ) ) ;
#264 = DIRECTION ( 'NONE',  ( -0.000000000000000000, -0.000000000000000000, -1.000000000000000000 ) ) ;
#265 = COLOUR_RGB ( '',0.7921568627450980005, 0.8196078431372548767, 0.9333333333333333481 ) ;
#266 = ADVANCED_FACE ( 'NONE', ( #333, #121 ), #248, .F. ) ;
#267 = SURFACE_STYLE_FILL_AREA ( #324 ) ;
#268 = EDGE_LOOP ( 'NONE', ( #223, #239, #101, #135 ) ) ;
#269 = CARTESIAN_POINT ( 'NONE',  ( 0.000000000000000000, 7.244443697168047258, 81.98190561586413594 ) ) ;
#270 = CARTESIAN_POINT ( 'NONE',  ( 20.00000000000000000, 2.449293598294706513E-15, 0.000000000000000000 ) ) ;
#271 = AXIS2_PLACEMENT_3D ( 'NONE', #246, #273, #364 ) ;
#272 = CARTESIAN_POINT ( 'NONE',  ( -20.00000000000000000, 5.782411586589358625E-16, 100.0000000000000000 ) ) ;
#273 = DIRECTION ( 'NONE',  ( 0.000000000000000000, 0.000000000000000000, 1.000000000000000000 ) ) ;
#274 = DIRECTION ( 'NONE',  ( -1.156482317317871725E-16, -1.000000000000000000, 0.000000000000000000 ) ) ;
#275 = ORIENTED_EDGE ( 'NONE', *, *, #282, .T. ) ;
#276 = ORIENTED_EDGE ( 'NONE', *, *, #76, .F. ) ;
#277 = SURFACE_STYLE_FILL_AREA ( #227 ) ;
#278 = ORIENTED_EDGE ( 'NONE', *, *, #232, .F. ) ;
#279 =( LENGTH_UNIT ( ) NAMED_UNIT ( * ) SI_UNIT ( .MILLI., .METRE. ) );
#280 = ORIENTED_EDGE ( 'NONE', *, *, #376, .F. ) ;
#281 = ORIENTED_EDGE ( 'NONE', *, *, #176, .T. ) ;
#282 = EDGE_CURVE ( 'NONE', #22, #139, #113, .T. ) ;
#283 = VECTOR ( 'NONE', #70, 1000.000000000000114 ) ;
#284 = CARTESIAN_POINT ( 'NONE',  ( 0.000000000000000000, 0.000000000000000000, 100.0000000000000000 ) ) ;
#285 = LINE ( 'NONE', #345, #187 ) ;
#286 = FACE_OUTER_BOUND ( 'NONE', #106, .T. ) ;
#287 = DIRECTION ( 'NONE',  ( 0.000000000000000000, -0.2588190451025143557, -0.9659258262890699775 ) ) ;
#288 = AXIS2_PLACEMENT_3D ( 'NONE', #317, #49, #144 ) ;
#289 = DIRECTION ( 'NONE',  ( -1.156482317317871725E-16, 1.000000000000000000, 0.000000000000000000 ) ) ;
#290 = EDGE_CURVE ( 'NONE', #26, #92, #7, .T. ) ;
#291 =( NAMED_UNIT ( * ) SI_UNIT ( $, .STERADIAN. ) SOLID_ANGLE_UNIT ( ) );
#292 = CARTESIAN_POINT ( 'NONE',  ( -20.00000000000000000, 5.782411586589358625E-16, 78.74666755208265556 ) ) ;
#293 = PLANE ( 'NONE',  #171 ) ;
#294 = ADVANCED_FACE ( 'NONE', ( #90 ), #100, .F. ) ;
#295 = DIRECTION ( 'NONE',  ( 1.000000000000000000, 1.156482317317871725E-16, -0.000000000000000000 ) ) ;
#296 = VERTEX_POINT ( 'NONE', #269 ) ;
#297 = EDGE_CURVE ( 'NONE', #92, #137, #12, .T. ) ;
#298 = DIRECTION ( 'NONE',  ( -1.156482317317871725E-16, 1.000000000000000000, 0.000000000000000000 ) ) ;
#299 = LINE ( 'NONE', #189, #206 ) ;
#300 = PRESENTATION_STYLE_ASSIGNMENT (( #38 ) ) ;
#301 = EDGE_LOOP ( 'NONE', ( #42, #162, #183, #341 ) ) ;
#302 = AXIS2_PLACEMENT_3D ( 'NONE', #129, #95, #274 ) ;
#303 = DIRECTION ( 'NONE',  ( 1.000000000000000000, 0.000000000000000000, -0.000000000000000000 ) ) ;
#304 = EDGE_LOOP ( 'NONE', ( #222, #278, #259, #329 ) ) ;
#305 = PLANE ( 'NONE',  #9 ) ;
#306 = EDGE_LOOP ( 'NONE', ( #69, #310, #85, #325 ) ) ;
#307 = APPLICATION_PROTOCOL_DEFINITION ( 'draft international standard', 'automotive_design', 1998, #188 ) ;
#308 =( NAMED_UNIT ( * ) PLANE_ANGLE_UNIT ( ) SI_UNIT ( $, .RADIAN. ) );
#309 = ADVANCED_FACE ( 'NONE', ( #221 ), #338, .T. ) ;
#310 = ORIENTED_EDGE ( 'NONE', *, *, #297, .F. ) ;
#311 = APPLICATION_PROTOCOL_DEFINITION ( 'draft international standard', 'automotive_design', 1998, #209 ) ;
#312 = ORIENTED_EDGE ( 'NONE', *, *, #363, .T. ) ;
#313 = DIRECTION ( 'NONE',  ( 0.000000000000000000, 0.2588190451025143557, 0.9659258262890700886 ) ) ;
#314 = UNCERTAINTY_MEASURE_WITH_UNIT (LENGTH_MEASURE( 1.000000000000000082E-05 ), #367, 'distance_accuracy_value', 'NONE');
#315 = DIRECTION ( 'NONE',  ( 1.000000000000000000, 0.000000000000000000, 0.000000000000000000 ) ) ;
#316 = EDGE_CURVE ( 'NONE', #92, #22, #34, .T. ) ;
#317 = CARTESIAN_POINT ( 'NONE',  ( 19.99999999999999289, -60.00000000000000000, 100.0000000000000000 ) ) ;
#318 = VECTOR ( 'NONE', #213, 1000.000000000000000 ) ;
#319 = DIRECTION ( 'NONE',  ( -0.000000000000000000, -0.000000000000000000, -1.000000000000000000 ) ) ;
#320 = EDGE_CURVE ( 'NONE', #247, #132, #245, .T. ) ;
#321 = VECTOR ( 'NONE', #16, 1000.000000000000000 ) ;
#322 = DIRECTION ( 'NONE',  ( -1.117076137943963576E-16, 0.9659258262890699775, -0.2588190451025143002 ) ) ;
#323 = COLOUR_RGB ( '',0.7921568627450980005, 0.8196078431372548767, 0.9333333333333333481 ) ;
#324 = FILL_AREA_STYLE ('',( #210 ) ) ;
#325 = ORIENTED_EDGE ( 'NONE', *, *, #51, .T. ) ;
#326 = FACE_OUTER_BOUND ( 'NONE', #193, .T. ) ;
#327 = CARTESIAN_POINT ( 'NONE',  ( 25.00000000000000000, 0.000000000000000000, 0.000000000000000000 ) ) ;
#328 = DIRECTION ( 'NONE',  ( -0.000000000000000000, 0.000000000000000000, -1.000000000000000000 ) ) ;
#329 = ORIENTED_EDGE ( 'NONE', *, *, #316, .T. ) ;
#330 = EDGE_CURVE ( 'NONE', #339, #175, #299, .T. ) ;
#331 = VERTEX_POINT ( 'NONE', #354 ) ;
#332 = DIRECTION ( 'NONE',  ( 0.000000000000000000, -0.9659258262890699775, 0.2588190451025144112 ) ) ;
#333 = FACE_BOUND ( 'NONE', #197, .T. ) ;
#334 = CARTESIAN_POINT ( 'NONE',  ( -20.00000000000000000, 5.782411586589358625E-16, 78.74666755208265556 ) ) ;
#335 = ORIENTED_EDGE ( 'NONE', *, *, #86, .T. ) ;
#336 = LINE ( 'NONE', #237, #168 ) ;
#337 = ADVANCED_FACE ( 'NONE', ( #240, #180 ), #293, .T. ) ;
#338 = PLANE ( 'NONE',  #116 ) ;
#339 = VERTEX_POINT ( 'NONE', #184 ) ;
#340 = ORIENTED_EDGE ( 'NONE', *, *, #111, .F. ) ;
#341 = ORIENTED_EDGE ( 'NONE', *, *, #134, .T. ) ;
#342 = ORIENTED_EDGE ( 'NONE', *, *, #258, .F. ) ;
#343 =( NAMED_UNIT ( * ) SI_UNIT ( $, .STERADIAN. ) SOLID_ANGLE_UNIT ( ) );
#344 = DIRECTION ( 'NONE',  ( 1.156482317317871478E-16, -1.000000000000000000, 0.000000000000000000 ) ) ;
#345 = CARTESIAN_POINT ( 'NONE',  ( -20.00000000000000000, -5.313333111979215317, 80.17037086855499695 ) ) ;
#346 = CARTESIAN_POINT ( 'NONE',  ( 19.99999999999999289, -55.00000000000000000, 0.000000000000000000 ) ) ;
#347 = CARTESIAN_POINT ( 'NONE',  ( -25.00000000000000000, 0.000000000000000000, 83.92304845413306680 ) ) ;
#348 = ADVANCED_FACE ( 'NONE', ( #154, #362 ), #305, .F. ) ;
#349 = FACE_OUTER_BOUND ( 'NONE', #73, .T. ) ;
#350 = VECTOR ( 'NONE', #355, 1000.000000000000000 ) ;
#351 = AXIS2_PLACEMENT_3D ( 'NONE', #233, #313, #109 ) ;
#352 = DIRECTION ( 'NONE',  ( -0.000000000000000000, 0.9659258262890700886, -0.2588190451025143557 ) ) ;
#353 = ORIENTED_EDGE ( 'NONE', *, *, #153, .T. ) ;
#354 = CARTESIAN_POINT ( 'NONE',  ( 0.000000000000000000, 5.950348471655492411, 77.15227648441884867 ) ) ;
#355 = DIRECTION ( 'NONE',  ( -0.000000000000000000, -0.000000000000000000, -1.000000000000000000 ) ) ;
#356 = EDGE_LOOP ( 'NONE', ( #46, #77, #342, #369 ) ) ;
#357 = CARTESIAN_POINT ( 'NONE',  ( -24.99999999999999289, -60.00000000000000000, 0.000000000000000000 ) ) ;
#358 = CARTESIAN_POINT ( 'NONE',  ( 0.000000000000000000, 0.000000000000000000, 0.000000000000000000 ) ) ;
#359 = DIRECTION ( 'NONE',  ( 1.156482317317871725E-16, 1.000000000000000000, -0.000000000000000000 ) ) ;
#360 = DIRECTION ( 'NONE',  ( 0.000000000000000000, 0.2588190451025143557, 0.9659258262890699775 ) ) ;
#361 = EDGE_LOOP ( 'NONE', ( #71 ) ) ;
#362 = FACE_OUTER_BOUND ( 'NONE', #151, .T. ) ;
#363 = EDGE_CURVE ( 'NONE', #145, #339, #152, .T. ) ;
#364 = DIRECTION ( 'NONE',  ( 1.000000000000000000, 0.000000000000000000, 0.000000000000000000 ) ) ;
#365 = DIRECTION ( 'NONE',  ( 1.000000000000000000, 0.000000000000000000, 0.000000000000000000 ) ) ;
#366 = VERTEX_POINT ( 'NONE', #357 ) ;
#367 =( LENGTH_UNIT ( ) NAMED_UNIT ( * ) SI_UNIT ( .MILLI., .METRE. ) );
#368 =( GEOMETRIC_REPRESENTATION_CONTEXT ( 3 ) GLOBAL_UNCERTAINTY_ASSIGNED_CONTEXT ( ( #314 ) ) GLOBAL_UNIT_ASSIGNED_CONTEXT ( ( #367, #308, #44 ) ) REPRESENTATION_CONTEXT ( 'NONE', 'WORKASPACE' ) );
#369 = ORIENTED_EDGE ( 'NONE', *, *, #72, .F. ) ;
#370 = CIRCLE ( 'NONE', #271, 20.00000000000000000 ) ;
#371 = STYLED_ITEM ( 'NONE', ( #300 ), #161 ) ;
#372 = CARTESIAN_POINT ( 'NONE',  ( -25.00000000000002132, 50.00000000000000000, 70.52558883257727018 ) ) ;
#373 = VERTEX_POINT ( 'NONE', #219 ) ;
#374 = CARTESIAN_POINT ( 'NONE',  ( 0.000000000000000000, 0.000000000000000000, 83.92304845413299574 ) ) ;
#375 = FACE_OUTER_BOUND ( 'NONE', #97, .T. ) ;
#376 = EDGE_CURVE ( 'NONE', #128, #89, #149, .T. ) ;
#377 = ORIENTED_EDGE ( 'NONE', *, *, #198, .T. ) ;
#378 = DIRECTION ( 'NONE',  ( 0.000000000000000000, 1.000000000000000000, 0.000000000000000000 ) ) ;
#379 = EDGE_CURVE ( 'NONE', #373, #366, #336, .T. ) ;
#380 =( LENGTH_UNIT ( ) NAMED_UNIT ( * ) SI_UNIT ( .MILLI., .METRE. ) );
#381 = VECTOR ( 'NONE', #264, 1000.000000000000000 ) ;
#382 = ORIENTED_EDGE ( 'NONE', *, *, #379, .F. ) ;
ENDSEC;
END-ISO-10303-21;
