999
"DXF R12 Output" (www.mydxf.blogspot.com)
 0 
SECTION
 2 
HEADER
 9 
$ACADVER
 1 
AC1009
 9 
$EXTMIN
 10 
 0 
 20 
 0 
 9 
$EXTMAX
 10 
 8.5 
 20 
 11 
 0 
ENDSEC
 0 
SECTION
 2 
ENTITIES
0
LINE
8
Layer 1
10
49.999994
20
1349.590121
11
50.775790
21
1348.063618
0
LINE
8
Layer 1
10
50.775790
20
1348.063618
11
51.712063
21
1346.655896
0
LINE
8
Layer 1
10
51.712063
20
1346.655896
11
52.792850
21
1345.356756
0
LINE
8
Layer 1
10
52.792850
20
1345.356756
11
54.002184
21
1344.155996
0
LINE
8
Layer 1
10
54.002184
20
1344.155996
11
56.742631
21
1342.008815
0
LINE
8
Layer 1
10
56.742631
20
1342.008815
11
59.805678
21
1340.132752
0
LINE
8
Layer 1
10
59.805678
20
1340.132752
11
63.063600
21
1338.446203
0
LINE
8
Layer 1
10
63.063600
20
1338.446203
11
66.388670
21
1336.867565
0
LINE
8
Layer 1
10
66.388670
20
1336.867565
11
69.653164
21
1335.315234
0
LINE
8
Layer 1
10
69.653164
20
1335.315234
11
72.729355
21
1333.707607
0
LINE
8
Layer 1
10
72.729355
20
1333.707607
11
88.677959
21
1326.402849
0
LINE
8
Layer 1
10
88.677959
20
1326.402849
11
104.682397
21
1319.195208
0
LINE
8
Layer 1
10
104.682397
20
1319.195208
11
120.598499
21
1311.802896
0
LINE
8
Layer 1
10
120.598499
20
1311.802896
11
128.478372
21
1307.949431
0
LINE
8
Layer 1
10
128.478372
20
1307.949431
11
136.282097
21
1303.944128
0
LINE
8
Layer 1
10
136.282097
20
1303.944128
11
138.958583
21
1302.442910
0
LINE
8
Layer 1
10
138.958583
20
1302.442910
11
142.419452
21
1300.308886
0
LINE
8
Layer 1
10
142.419452
20
1300.308886
11
146.087989
21
1297.751256
0
LINE
8
Layer 1
10
146.087989
20
1297.751256
11
149.387483
21
1294.979221
0
LINE
8
Layer 1
10
149.387483
20
1294.979221
11
150.718616
21
1293.578178
0
LINE
8
Layer 1
10
150.718616
20
1293.578178
11
151.741221
21
1292.201984
0
LINE
8
Layer 1
10
151.741221
20
1292.201984
11
152.383209
21
1290.876789
0
LINE
8
Layer 1
10
152.383209
20
1290.876789
11
152.572490
21
1289.628744
0
LINE
8
Layer 1
10
152.572490
20
1289.628744
11
152.236977
21
1288.484000
0
LINE
8
Layer 1
10
152.236977
20
1288.484000
11
151.304579
21
1287.468705
0
LINE
8
Layer 1
10
151.304579
20
1287.468705
11
149.703207
21
1286.609010
0
LINE
8
Layer 1
10
149.703207
20
1286.609010
11
147.360773
21
1285.931066
0
LINE
8
Layer 1
10
147.360773
20
1285.931066
11
143.944158
21
1285.016444
0
LINE
8
Layer 1
10
143.944158
20
1285.016444
11
140.434886
21
1284.551173
0
LINE
8
Layer 1
10
140.434886
20
1284.551173
11
136.870093
21
1284.389606
0
LINE
8
Layer 1
10
136.870093
20
1284.389606
11
133.286912
21
1284.386098
0
LINE
8
Layer 1
10
133.286912
20
1284.386098
11
129.722477
21
1284.395000
0
LINE
8
Layer 1
10
129.722477
20
1284.395000
11
126.213925
21
1284.270666
0
LINE
8
Layer 1
10
126.213925
20
1284.270666
11
122.798387
21
1283.867449
0
LINE
8
Layer 1
10
122.798387
20
1283.867449
11
119.513000
21
1283.039701
0
LINE
8
Layer 1
10
119.513000
20
1283.039701
11
121.850500
21
1280.320906
0
LINE
8
Layer 1
10
121.850500
20
1280.320906
11
124.291802
21
1277.779340
0
LINE
8
Layer 1
10
124.291802
20
1277.779340
11
126.874980
21
1275.492444
0
LINE
8
Layer 1
10
126.874980
20
1275.492444
11
129.638106
21
1273.537663
0
LINE
8
Layer 1
10
129.638106
20
1273.537663
11
132.619254
21
1271.992440
0
LINE
8
Layer 1
10
132.619254
20
1271.992440
11
135.856499
21
1270.934218
0
LINE
8
Layer 1
10
135.856499
20
1270.934218
11
137.583055
21
1270.611934
0
LINE
8
Layer 1
10
137.583055
20
1270.611934
11
139.387913
21
1270.440441
0
LINE
8
Layer 1
10
139.387913
20
1270.440441
11
141.275832
21
1270.429420
0
LINE
8
Layer 1
10
141.275832
20
1270.429420
11
143.251571
21
1270.588552
0
LINE
8
Layer 1
10
143.251571
20
1270.588552
11
147.135315
21
1271.232635
0
LINE
8
Layer 1
10
147.135315
20
1271.232635
11
151.014895
21
1271.432799
0
LINE
8
Layer 1
10
151.014895
20
1271.432799
11
154.892858
21
1271.322205
0
LINE
8
Layer 1
10
154.892858
20
1271.322205
11
158.771746
21
1271.034015
0
LINE
8
Layer 1
10
158.771746
20
1271.034015
11
166.542479
21
1270.457495
0
LINE
8
Layer 1
10
166.542479
20
1270.457495
11
170.439414
21
1270.435489
0
LINE
8
Layer 1
10
170.439414
20
1270.435489
11
174.347453
21
1270.768534
0
LINE
8
Layer 1
10
174.347453
20
1270.768534
11
176.281352
21
1271.041806
0
LINE
8
Layer 1
10
176.281352
20
1271.041806
11
178.128593
21
1271.512773
0
LINE
8
Layer 1
10
178.128593
20
1271.512773
11
181.618399
21
1272.894596
0
LINE
8
Layer 1
10
181.618399
20
1272.894596
11
184.927465
21
1274.607617
0
LINE
8
Layer 1
10
184.927465
20
1274.607617
11
188.166384
21
1276.345451
0
LINE
8
Layer 1
10
188.166384
20
1276.345451
11
191.445747
21
1277.801713
0
LINE
8
Layer 1
10
191.445747
20
1277.801713
11
193.135156
21
1278.328508
0
LINE
8
Layer 1
10
193.135156
20
1278.328508
11
194.876149
21
1278.670016
0
LINE
8
Layer 1
10
194.876149
20
1278.670016
11
196.682549
21
1278.787937
0
LINE
8
Layer 1
10
196.682549
20
1278.787937
11
198.568181
21
1278.643974
0
LINE
8
Layer 1
10
198.568181
20
1278.643974
11
200.546869
21
1278.199829
0
LINE
8
Layer 1
10
200.546869
20
1278.199829
11
202.632437
21
1277.417203
0
LINE
8
Layer 1
10
202.632437
20
1277.417203
11
209.988324
21
1276.249517
0
LINE
8
Layer 1
10
209.988324
20
1276.249517
11
217.297531
21
1274.894806
0
LINE
8
Layer 1
10
217.297531
20
1274.894806
11
224.544062
21
1273.242948
0
LINE
8
Layer 1
10
224.544062
20
1273.242948
11
231.711923
21
1271.183821
0
LINE
8
Layer 1
10
231.711923
20
1271.183821
11
239.476590
21
1268.638734
0
LINE
8
Layer 1
10
239.476590
20
1268.638734
11
247.157256
21
1265.858140
0
LINE
8
Layer 1
10
247.157256
20
1265.858140
11
262.380482
21
1259.907007
0
LINE
8
Layer 1
10
262.380482
20
1259.907007
11
277.609392
21
1253.963577
0
LINE
8
Layer 1
10
277.609392
20
1253.963577
11
285.297165
21
1251.192612
0
LINE
8
Layer 1
10
285.297165
20
1251.192612
11
293.071781
21
1248.661006
0
LINE
8
Layer 1
10
293.071781
20
1248.661006
11
300.038373
21
1247.679301
0
LINE
8
Layer 1
10
300.038373
20
1247.679301
11
304.147680
21
1247.314020
0
LINE
8
Layer 1
10
304.147680
20
1247.314020
11
308.269282
21
1247.237078
0
LINE
8
Layer 1
10
308.269282
20
1247.237078
11
312.099395
21
1247.601942
0
LINE
8
Layer 1
10
312.099395
20
1247.601942
11
313.810210
21
1247.998011
0
LINE
8
Layer 1
10
313.810210
20
1247.998011
11
315.334234
21
1248.562082
0
LINE
8
Layer 1
10
315.334234
20
1248.562082
11
316.633493
21
1249.313339
0
LINE
8
Layer 1
10
316.633493
20
1249.313339
11
317.670014
21
1250.270965
0
LINE
8
Layer 1
10
317.670014
20
1250.270965
11
318.405825
21
1251.454144
0
LINE
8
Layer 1
10
318.405825
20
1251.454144
11
318.802952
21
1252.882060
0
LINE
8
Layer 1
10
318.802952
20
1252.882060
11
315.088903
21
1252.177177
0
LINE
8
Layer 1
10
315.088903
20
1252.177177
11
311.390630
21
1251.769757
0
LINE
8
Layer 1
10
311.390630
20
1251.769757
11
307.709425
21
1251.638120
0
LINE
8
Layer 1
10
307.709425
20
1251.638120
11
304.046576
21
1251.760588
0
LINE
8
Layer 1
10
304.046576
20
1251.760588
11
300.403376
21
1252.115481
0
LINE
8
Layer 1
10
300.403376
20
1252.115481
11
296.781113
21
1252.681120
0
LINE
8
Layer 1
10
296.781113
20
1252.681120
11
293.181078
21
1253.435824
0
LINE
8
Layer 1
10
293.181078
20
1253.435824
11
289.604560
21
1254.357916
0
LINE
8
Layer 1
10
289.604560
20
1254.357916
11
282.527240
21
1256.617543
0
LINE
8
Layer 1
10
282.527240
20
1256.617543
11
275.559474
21
1259.286565
0
LINE
8
Layer 1
10
275.559474
20
1259.286565
11
268.711584
21
1262.191549
0
LINE
8
Layer 1
10
268.711584
20
1262.191549
11
261.993890
21
1265.159059
0
LINE
8
Layer 1
10
261.993890
20
1265.159059
11
250.583931
21
1270.316597
0
LINE
8
Layer 1
10
250.583931
20
1270.316597
11
239.117679
21
1275.333458
0
LINE
8
Layer 1
10
239.117679
20
1275.333458
11
233.315484
21
1277.657306
0
LINE
8
Layer 1
10
233.315484
20
1277.657306
11
227.441667
21
1279.787791
0
LINE
8
Layer 1
10
227.441667
20
1279.787791
11
221.477043
21
1281.672180
0
LINE
8
Layer 1
10
221.477043
20
1281.672180
11
215.402429
21
1283.257744
0
LINE
8
Layer 1
10
215.402429
20
1283.257744
11
211.955197
21
1283.812674
0
LINE
8
Layer 1
10
211.955197
20
1283.812674
11
208.592127
21
1284.558957
0
LINE
8
Layer 1
10
208.592127
20
1284.558957
11
205.300345
21
1285.474416
0
LINE
8
Layer 1
10
205.300345
20
1285.474416
11
202.066978
21
1286.536877
0
LINE
8
Layer 1
10
202.066978
20
1286.536877
11
195.723995
21
1289.014101
0
LINE
8
Layer 1
10
195.723995
20
1289.014101
11
189.460190
21
1291.813220
0
LINE
8
Layer 1
10
189.460190
20
1291.813220
11
185.712768
21
1292.107525
0
LINE
8
Layer 1
10
185.712768
20
1292.107525
11
181.963493
21
1292.640486
0
LINE
8
Layer 1
10
181.963493
20
1292.640486
11
178.241746
21
1293.419311
0
LINE
8
Layer 1
10
178.241746
20
1293.419311
11
174.576906
21
1294.451208
0
LINE
8
Layer 1
10
174.576906
20
1294.451208
11
170.998354
21
1295.743387
0
LINE
8
Layer 1
10
170.998354
20
1295.743387
11
167.535469
21
1297.303056
0
LINE
8
Layer 1
10
167.535469
20
1297.303056
11
164.217634
21
1299.137423
0
LINE
8
Layer 1
10
164.217634
20
1299.137423
11
161.074226
21
1301.253696
0
LINE
8
Layer 1
10
161.074226
20
1301.253696
11
152.993040
21
1306.222080
0
LINE
8
Layer 1
10
152.993040
20
1306.222080
11
144.660586
21
1310.697993
0
LINE
8
Layer 1
10
144.660586
20
1310.697993
11
136.110966
21
1314.729259
0
LINE
8
Layer 1
10
136.110966
20
1314.729259
11
127.378277
21
1318.363703
0
LINE
8
Layer 1
10
127.378277
20
1318.363703
11
118.496619
21
1321.649152
0
LINE
8
Layer 1
10
118.496619
20
1321.649152
11
109.500092
21
1324.633429
0
LINE
8
Layer 1
10
109.500092
20
1324.633429
11
100.422796
21
1327.364362
0
LINE
8
Layer 1
10
100.422796
20
1327.364362
11
91.298829
21
1329.889773
0
LINE
8
Layer 1
10
91.298829
20
1329.889773
11
85.878037
21
1331.714747
0
LINE
8
Layer 1
10
85.878037
20
1331.714747
11
80.497891
21
1333.685981
0
LINE
8
Layer 1
10
80.497891
20
1333.685981
11
75.182248
21
1335.828747
0
LINE
8
Layer 1
10
75.182248
20
1335.828747
11
69.954963
21
1338.168313
0
LINE
8
Layer 1
10
69.954963
20
1338.168313
11
64.839894
21
1340.729951
0
LINE
8
Layer 1
10
64.839894
20
1340.729951
11
59.860896
21
1343.538931
0
LINE
8
Layer 1
10
59.860896
20
1343.538931
11
55.041827
21
1346.620524
0
LINE
8
Layer 1
10
55.041827
20
1346.620524
11
50.406542
21
1350.000000
0
LINE
8
Layer 1
10
50.406542
20
1350.000000
11
49.999994
21
1349.590121
0
LINE
8
Layer 1
10
801.813971
20
1370.000000
11
801.112398
21
1368.846126
0
LINE
8
Layer 1
10
801.112398
20
1368.846126
11
800.687358
21
1367.598791
0
LINE
8
Layer 1
10
800.687358
20
1367.598791
11
800.511321
21
1366.270051
0
LINE
8
Layer 1
10
800.511321
20
1366.270051
11
800.556757
21
1364.871961
0
LINE
8
Layer 1
10
800.556757
20
1364.871961
11
800.796137
21
1363.416578
0
LINE
8
Layer 1
10
800.796137
20
1363.416578
11
801.201929
21
1361.915957
0
LINE
8
Layer 1
10
801.201929
20
1361.915957
11
802.402632
21
1358.827222
0
LINE
8
Layer 1
10
802.402632
20
1358.827222
11
803.938625
21
1355.702201
0
LINE
8
Layer 1
10
803.938625
20
1355.702201
11
805.589667
21
1352.637341
0
LINE
8
Layer 1
10
805.589667
20
1352.637341
11
807.135518
21
1349.729085
0
LINE
8
Layer 1
10
807.135518
20
1349.729085
11
808.355936
21
1347.073879
0
LINE
8
Layer 1
10
808.355936
20
1347.073879
11
809.533409
21
1345.438174
0
LINE
8
Layer 1
10
809.533409
20
1345.438174
11
810.780475
21
1343.269435
0
LINE
8
Layer 1
10
810.780475
20
1343.269435
11
813.505581
21
1338.510803
0
LINE
8
Layer 1
10
813.505581
20
1338.510803
11
814.994720
21
1336.509884
0
LINE
8
Layer 1
10
814.994720
20
1336.509884
11
815.773364
21
1335.732861
0
LINE
8
Layer 1
10
815.773364
20
1335.732861
11
816.575649
21
1335.153878
0
LINE
8
Layer 1
10
816.575649
20
1335.153878
11
817.402269
21
1334.809746
0
LINE
8
Layer 1
10
817.402269
20
1334.809746
11
818.253917
21
1334.737274
0
LINE
8
Layer 1
10
818.253917
20
1334.737274
11
819.131288
21
1334.973274
0
LINE
8
Layer 1
10
819.131288
20
1334.973274
11
820.035074
21
1335.554557
0
LINE
8
Layer 1
10
820.035074
20
1335.554557
11
819.192758
21
1340.355121
0
LINE
8
Layer 1
10
819.192758
20
1340.355121
11
817.965297
21
1345.103895
0
LINE
8
Layer 1
10
817.965297
20
1345.103895
11
816.356014
21
1349.752644
0
LINE
8
Layer 1
10
816.356014
20
1349.752644
11
814.368236
21
1354.253132
0
LINE
8
Layer 1
10
814.368236
20
1354.253132
11
812.005288
21
1358.557123
0
LINE
8
Layer 1
10
812.005288
20
1358.557123
11
809.270494
21
1362.616383
0
LINE
8
Layer 1
10
809.270494
20
1362.616383
11
806.167180
21
1366.382675
0
LINE
8
Layer 1
10
806.167180
20
1366.382675
11
802.698671
21
1369.807764
0
LINE
8
Layer 1
10
802.698671
20
1369.807764
11
801.813971
21
1370.000000
0
LINE
8
Layer 1
10
847.460792
20
1361.948295
11
845.829163
21
1360.148681
0
LINE
8
Layer 1
10
845.829163
20
1360.148681
11
844.576085
21
1358.084388
0
LINE
8
Layer 1
10
844.576085
20
1358.084388
11
843.622474
21
1355.816728
0
LINE
8
Layer 1
10
843.622474
20
1355.816728
11
842.889243
21
1353.407013
0
LINE
8
Layer 1
10
842.889243
20
1353.407013
11
841.767587
21
1348.406660
0
LINE
8
Layer 1
10
841.767587
20
1348.406660
11
840.578438
21
1343.573822
0
LINE
8
Layer 1
10
840.578438
20
1343.573822
11
840.158073
21
1340.835654
0
LINE
8
Layer 1
10
840.158073
20
1340.835654
11
839.895315
21
1338.076234
0
LINE
8
Layer 1
10
839.895315
20
1338.076234
11
839.807576
21
1332.525734
0
LINE
8
Layer 1
10
839.807576
20
1332.525734
11
840.245137
21
1326.986511
0
LINE
8
Layer 1
10
840.245137
20
1326.986511
11
841.137914
21
1321.522757
0
LINE
8
Layer 1
10
841.137914
20
1321.522757
11
842.311069
21
1321.588351
0
LINE
8
Layer 1
10
842.311069
20
1321.588351
11
843.330315
21
1321.960679
0
LINE
8
Layer 1
10
843.330315
20
1321.960679
11
844.208046
21
1322.606552
0
LINE
8
Layer 1
10
844.208046
20
1322.606552
11
844.956655
21
1323.492785
0
LINE
8
Layer 1
10
844.956655
20
1323.492785
11
845.588538
21
1324.586191
0
LINE
8
Layer 1
10
845.588538
20
1324.586191
11
846.116087
21
1325.853584
0
LINE
8
Layer 1
10
846.116087
20
1325.853584
11
846.907763
21
1328.777585
0
LINE
8
Layer 1
10
846.907763
20
1328.777585
11
847.430836
21
1331.999295
0
LINE
8
Layer 1
10
847.430836
20
1331.999295
11
847.784459
21
1335.253222
0
LINE
8
Layer 1
10
847.784459
20
1335.253222
11
848.379962
21
1340.795763
0
LINE
8
Layer 1
10
848.379962
20
1340.795763
11
848.494430
21
1343.392389
0
LINE
8
Layer 1
10
848.494430
20
1343.392389
11
848.767254
21
1346.117652
0
LINE
8
Layer 1
10
848.767254
20
1346.117652
11
849.340192
21
1351.723923
0
LINE
8
Layer 1
10
849.340192
20
1351.723923
11
849.416418
21
1354.489850
0
LINE
8
Layer 1
10
849.416418
20
1354.489850
11
849.203223
21
1357.154248
0
LINE
8
Layer 1
10
849.203223
20
1357.154248
11
848.588663
21
1359.659577
0
LINE
8
Layer 1
10
848.588663
20
1359.659577
11
848.095888
21
1360.834609
0
LINE
8
Layer 1
10
848.095888
20
1360.834609
11
847.460792
21
1361.948295
0
LINE
8
Layer 1
10
847.460792
20
1361.948295
11
847.460792
21
1361.948295
0
LINE
8
Layer 1
10
756.400205
20
1355.449466
11
756.466453
21
1354.239161
0
LINE
8
Layer 1
10
756.466453
20
1354.239161
11
756.798615
21
1353.069562
0
LINE
8
Layer 1
10
756.798615
20
1353.069562
11
757.368413
21
1351.939043
0
LINE
8
Layer 1
10
757.368413
20
1351.939043
11
758.147567
21
1350.845980
0
LINE
8
Layer 1
10
758.147567
20
1350.845980
11
760.220835
21
1348.765729
0
LINE
8
Layer 1
10
760.220835
20
1348.765729
11
762.792192
21
1346.815813
0
LINE
8
Layer 1
10
762.792192
20
1346.815813
11
765.635411
21
1344.983238
0
LINE
8
Layer 1
10
765.635411
20
1344.983238
11
768.524265
21
1343.255011
0
LINE
8
Layer 1
10
768.524265
20
1343.255011
11
771.232528
21
1341.618137
0
LINE
8
Layer 1
10
771.232528
20
1341.618137
11
773.533973
21
1340.059621
0
LINE
8
Layer 1
10
773.533973
20
1340.059621
11
775.720743
21
1339.033255
0
LINE
8
Layer 1
10
775.720743
20
1339.033255
11
778.285041
21
1337.656819
0
LINE
8
Layer 1
10
778.285041
20
1337.656819
11
783.927017
21
1334.720356
0
LINE
8
Layer 1
10
783.927017
20
1334.720356
11
786.695094
21
1333.593637
0
LINE
8
Layer 1
10
786.695094
20
1333.593637
11
789.221497
21
1332.983465
0
LINE
8
Layer 1
10
789.221497
20
1332.983465
11
790.345696
21
1332.939789
0
LINE
8
Layer 1
10
790.345696
20
1332.939789
11
791.351426
21
1333.106495
0
LINE
8
Layer 1
10
791.351426
20
1333.106495
11
792.219337
21
1333.510665
0
LINE
8
Layer 1
10
792.219337
20
1333.510665
11
792.930080
21
1334.179380
0
LINE
8
Layer 1
10
792.930080
20
1334.179380
11
789.277759
21
1337.905580
0
LINE
8
Layer 1
10
789.277759
20
1337.905580
11
785.363521
21
1341.325374
0
LINE
8
Layer 1
10
785.363521
20
1341.325374
11
781.212523
21
1344.438525
0
LINE
8
Layer 1
10
781.212523
20
1344.438525
11
776.849925
21
1347.244793
0
LINE
8
Layer 1
10
776.849925
20
1347.244793
11
772.300884
21
1349.743937
0
LINE
8
Layer 1
10
772.300884
20
1349.743937
11
767.590558
21
1351.935720
0
LINE
8
Layer 1
10
767.590558
20
1351.935720
11
762.744104
21
1353.819901
0
LINE
8
Layer 1
10
762.744104
20
1353.819901
11
757.786682
21
1355.396240
0
LINE
8
Layer 1
10
757.786682
20
1355.396240
11
756.400205
21
1355.449466
0
LINE
8
Layer 1
10
756.400205
20
1355.449466
11
756.400205
21
1355.449466
0
LINE
8
Layer 1
10
879.715676
20
1327.894043
11
876.495540
21
1326.297543
0
LINE
8
Layer 1
10
876.495540
20
1326.297543
11
873.503442
21
1324.321116
0
LINE
8
Layer 1
10
873.503442
20
1324.321116
11
870.719917
21
1322.026620
0
LINE
8
Layer 1
10
870.719917
20
1322.026620
11
868.125500
21
1319.475912
0
LINE
8
Layer 1
10
868.125500
20
1319.475912
11
865.700725
21
1316.730847
0
LINE
8
Layer 1
10
865.700725
20
1316.730847
11
863.426129
21
1313.853284
0
LINE
8
Layer 1
10
863.426129
20
1313.853284
11
859.249613
21
1307.948086
0
LINE
8
Layer 1
10
859.249613
20
1307.948086
11
857.292681
21
1304.558062
0
LINE
8
Layer 1
10
857.292681
20
1304.558062
11
854.704736
21
1300.116210
0
LINE
8
Layer 1
10
854.704736
20
1300.116210
11
853.737015
21
1297.995493
0
LINE
8
Layer 1
10
853.737015
20
1297.995493
11
853.286999
21
1296.205390
0
LINE
8
Layer 1
10
853.286999
20
1296.205390
11
853.326491
21
1295.496151
0
LINE
8
Layer 1
10
853.326491
20
1295.496151
11
853.579841
21
1294.943761
0
LINE
8
Layer 1
10
853.579841
20
1294.943761
11
854.075194
21
1294.572954
0
LINE
8
Layer 1
10
854.075194
20
1294.572954
11
854.840693
21
1294.408462
0
LINE
8
Layer 1
10
854.840693
20
1294.408462
11
859.010970
21
1297.486964
0
LINE
8
Layer 1
10
859.010970
20
1297.486964
11
862.971502
21
1300.844875
0
LINE
8
Layer 1
10
862.971502
20
1300.844875
11
866.697854
21
1304.466305
0
LINE
8
Layer 1
10
866.697854
20
1304.466305
11
870.165592
21
1308.335363
0
LINE
8
Layer 1
10
870.165592
20
1308.335363
11
873.350282
21
1312.436157
0
LINE
8
Layer 1
10
873.350282
20
1312.436157
11
876.227490
21
1316.752797
0
LINE
8
Layer 1
10
876.227490
20
1316.752797
11
878.772783
21
1321.269390
0
LINE
8
Layer 1
10
878.772783
20
1321.269390
11
880.961726
21
1325.970046
0
LINE
8
Layer 1
10
880.961726
20
1325.970046
11
881.032736
21
1326.636072
0
LINE
8
Layer 1
10
881.032736
20
1326.636072
11
880.859329
21
1327.316192
0
LINE
8
Layer 1
10
880.859329
20
1327.316192
11
880.425607
21
1327.804239
0
LINE
8
Layer 1
10
880.425607
20
1327.804239
11
879.715676
21
1327.894043
0
LINE
8
Layer 1
10
879.715676
20
1327.894043
11
879.715676
21
1327.894043
0
LINE
8
Layer 1
10
748.391906
20
1324.410535
11
743.139680
21
1324.154799
0
LINE
8
Layer 1
10
743.139680
20
1324.154799
11
740.245750
21
1323.963878
0
LINE
8
Layer 1
10
740.245750
20
1323.963878
11
737.367887
21
1323.629663
0
LINE
8
Layer 1
10
737.367887
20
1323.629663
11
734.652051
21
1323.076211
0
LINE
8
Layer 1
10
734.652051
20
1323.076211
11
732.244202
21
1322.227579
0
LINE
8
Layer 1
10
732.244202
20
1322.227579
11
731.201384
21
1321.668837
0
LINE
8
Layer 1
10
731.201384
20
1321.668837
11
730.290298
21
1321.007822
0
LINE
8
Layer 1
10
730.290298
20
1321.007822
11
729.529188
21
1320.235039
0
LINE
8
Layer 1
10
729.529188
20
1320.235039
11
728.936300
21
1319.340997
0
LINE
8
Layer 1
10
728.936300
20
1319.340997
11
733.929220
21
1317.729764
0
LINE
8
Layer 1
10
733.929220
20
1317.729764
11
739.057757
21
1316.532473
0
LINE
8
Layer 1
10
739.057757
20
1316.532473
11
744.280048
21
1315.757113
0
LINE
8
Layer 1
10
744.280048
20
1315.757113
11
749.554233
21
1315.411674
0
LINE
8
Layer 1
10
749.554233
20
1315.411674
11
754.838451
21
1315.504146
0
LINE
8
Layer 1
10
754.838451
20
1315.504146
11
760.090839
21
1316.042520
0
LINE
8
Layer 1
10
760.090839
20
1316.042520
11
765.269536
21
1317.034785
0
LINE
8
Layer 1
10
765.269536
20
1317.034785
11
770.332682
21
1318.488932
0
LINE
8
Layer 1
10
770.332682
20
1318.488932
11
771.047846
21
1319.286089
0
LINE
8
Layer 1
10
771.047846
20
1319.286089
11
771.372526
21
1319.990479
0
LINE
8
Layer 1
10
771.372526
20
1319.990479
11
771.348844
21
1320.609094
0
LINE
8
Layer 1
10
771.348844
20
1320.609094
11
771.018926
21
1321.148926
0
LINE
8
Layer 1
10
771.018926
20
1321.148926
11
770.424894
21
1321.616969
0
LINE
8
Layer 1
10
770.424894
20
1321.616969
11
769.608873
21
1322.020212
0
LINE
8
Layer 1
10
769.608873
20
1322.020212
11
767.479360
21
1322.660273
0
LINE
8
Layer 1
10
767.479360
20
1322.660273
11
764.967378
21
1323.125045
0
LINE
8
Layer 1
10
764.967378
20
1323.125045
11
762.409918
21
1323.470464
0
LINE
8
Layer 1
10
762.409918
20
1323.470464
11
758.506529
21
1324.026990
0
LINE
8
Layer 1
10
758.506529
20
1324.026990
11
753.454648
21
1324.355407
0
LINE
8
Layer 1
10
753.454648
20
1324.355407
11
748.391906
21
1324.410535
0
LINE
8
Layer 1
10
748.391906
20
1324.410535
11
748.391906
21
1324.410535
0
LINE
8
Layer 1
10
807.392954
20
1324.007975
11
804.346678
21
1324.040906
0
LINE
8
Layer 1
10
804.346678
20
1324.040906
11
801.407179
21
1323.795473
0
LINE
8
Layer 1
10
801.407179
20
1323.795473
11
798.579232
21
1323.286370
0
LINE
8
Layer 1
10
798.579232
20
1323.286370
11
795.867610
21
1322.528290
0
LINE
8
Layer 1
10
795.867610
20
1322.528290
11
793.277089
21
1321.535927
0
LINE
8
Layer 1
10
793.277089
20
1321.535927
11
790.812443
21
1320.323975
0
LINE
8
Layer 1
10
790.812443
20
1320.323975
11
788.478446
21
1318.907125
0
LINE
8
Layer 1
10
788.478446
20
1318.907125
11
786.279871
21
1317.300073
0
LINE
8
Layer 1
10
786.279871
20
1317.300073
11
784.221495
21
1315.517512
0
LINE
8
Layer 1
10
784.221495
20
1315.517512
11
782.308090
21
1313.574134
0
LINE
8
Layer 1
10
782.308090
20
1313.574134
11
780.544430
21
1311.484633
0
LINE
8
Layer 1
10
780.544430
20
1311.484633
11
778.935292
21
1309.263703
0
LINE
8
Layer 1
10
778.935292
20
1309.263703
11
777.485448
21
1306.926037
0
LINE
8
Layer 1
10
777.485448
20
1306.926037
11
776.199672
21
1304.486328
0
LINE
8
Layer 1
10
776.199672
20
1304.486328
11
775.082740
21
1301.959269
0
LINE
8
Layer 1
10
775.082740
20
1301.959269
11
774.139426
21
1299.359555
0
LINE
8
Layer 1
10
774.139426
20
1299.359555
11
773.374503
21
1296.701878
0
LINE
8
Layer 1
10
773.374503
20
1296.701878
11
772.792746
21
1294.000932
0
LINE
8
Layer 1
10
772.792746
20
1294.000932
11
772.398929
21
1291.271411
0
LINE
8
Layer 1
10
772.398929
20
1291.271411
11
772.197827
21
1288.528007
0
LINE
8
Layer 1
10
772.197827
20
1288.528007
11
772.194214
21
1285.785414
0
LINE
8
Layer 1
10
772.194214
20
1285.785414
11
772.392864
21
1283.058325
0
LINE
8
Layer 1
10
772.392864
20
1283.058325
11
772.798552
21
1280.361435
0
LINE
8
Layer 1
10
772.798552
20
1280.361435
11
773.416051
21
1277.709435
0
LINE
8
Layer 1
10
773.416051
20
1277.709435
11
774.250136
21
1275.117020
0
LINE
8
Layer 1
10
774.250136
20
1275.117020
11
775.305582
21
1272.598883
0
LINE
8
Layer 1
10
775.305582
20
1272.598883
11
776.587162
21
1270.169718
0
LINE
8
Layer 1
10
776.587162
20
1270.169718
11
778.099652
21
1267.844217
0
LINE
8
Layer 1
10
778.099652
20
1267.844217
11
779.847824
21
1265.637074
0
LINE
8
Layer 1
10
779.847824
20
1265.637074
11
781.836454
21
1263.562983
0
LINE
8
Layer 1
10
781.836454
20
1263.562983
11
784.070315
21
1261.636637
0
LINE
8
Layer 1
10
784.070315
20
1261.636637
11
786.554183
21
1259.872729
0
LINE
8
Layer 1
10
786.554183
20
1259.872729
11
789.016117
21
1258.036945
0
LINE
8
Layer 1
10
789.016117
20
1258.036945
11
791.551487
21
1256.493326
0
LINE
8
Layer 1
10
791.551487
20
1256.493326
11
794.148065
21
1255.232490
0
LINE
8
Layer 1
10
794.148065
20
1255.232490
11
796.793623
21
1254.245056
0
LINE
8
Layer 1
10
796.793623
20
1254.245056
11
799.475934
21
1253.521643
0
LINE
8
Layer 1
10
799.475934
20
1253.521643
11
802.182770
21
1253.052870
0
LINE
8
Layer 1
10
802.182770
20
1253.052870
11
804.901903
21
1252.829355
0
LINE
8
Layer 1
10
804.901903
20
1252.829355
11
807.621107
21
1252.841717
0
LINE
8
Layer 1
10
807.621107
20
1252.841717
11
810.328154
21
1253.080576
0
LINE
8
Layer 1
10
810.328154
20
1253.080576
11
813.010815
21
1253.536549
0
LINE
8
Layer 1
10
813.010815
20
1253.536549
11
815.656863
21
1254.200256
0
LINE
8
Layer 1
10
815.656863
20
1254.200256
11
818.254072
21
1255.062316
0
LINE
8
Layer 1
10
818.254072
20
1255.062316
11
820.790212
21
1256.113347
0
LINE
8
Layer 1
10
820.790212
20
1256.113347
11
823.253057
21
1257.343968
0
LINE
8
Layer 1
10
823.253057
20
1257.343968
11
825.630380
21
1258.744798
0
LINE
8
Layer 1
10
825.630380
20
1258.744798
11
827.909951
21
1260.306457
0
LINE
8
Layer 1
10
827.909951
20
1260.306457
11
830.079545
21
1262.019562
0
LINE
8
Layer 1
10
830.079545
20
1262.019562
11
832.126933
21
1263.874732
0
LINE
8
Layer 1
10
832.126933
20
1263.874732
11
834.039888
21
1265.862587
0
LINE
8
Layer 1
10
834.039888
20
1265.862587
11
835.806182
21
1267.973745
0
LINE
8
Layer 1
10
835.806182
20
1267.973745
11
837.413587
21
1270.198824
0
LINE
8
Layer 1
10
837.413587
20
1270.198824
11
838.849877
21
1272.528445
0
LINE
8
Layer 1
10
838.849877
20
1272.528445
11
840.102823
21
1274.953225
0
LINE
8
Layer 1
10
840.102823
20
1274.953225
11
841.160198
21
1277.463784
0
LINE
8
Layer 1
10
841.160198
20
1277.463784
11
842.009774
21
1280.050740
0
LINE
8
Layer 1
10
842.009774
20
1280.050740
11
842.639324
21
1282.704712
0
LINE
8
Layer 1
10
842.639324
20
1282.704712
11
843.036620
21
1285.416319
0
LINE
8
Layer 1
10
843.036620
20
1285.416319
11
843.189435
21
1288.176179
0
LINE
8
Layer 1
10
843.189435
20
1288.176179
11
843.085540
21
1290.974912
0
LINE
8
Layer 1
10
843.085540
20
1290.974912
11
842.712710
21
1293.803137
0
LINE
8
Layer 1
10
842.712710
20
1293.803137
11
842.058715
21
1296.651472
0
LINE
8
Layer 1
10
842.058715
20
1296.651472
11
841.111328
21
1299.510535
0
LINE
8
Layer 1
10
841.111328
20
1299.510535
11
840.167442
21
1302.149564
0
LINE
8
Layer 1
10
840.167442
20
1302.149564
11
839.005839
21
1304.686336
0
LINE
8
Layer 1
10
839.005839
20
1304.686336
11
837.639929
21
1307.111107
0
LINE
8
Layer 1
10
837.639929
20
1307.111107
11
836.083122
21
1309.414135
0
LINE
8
Layer 1
10
836.083122
20
1309.414135
11
834.348830
21
1311.585676
0
LINE
8
Layer 1
10
834.348830
20
1311.585676
11
832.450463
21
1313.615987
0
LINE
8
Layer 1
10
832.450463
20
1313.615987
11
830.401430
21
1315.495326
0
LINE
8
Layer 1
10
830.401430
20
1315.495326
11
828.215144
21
1317.213949
0
LINE
8
Layer 1
10
828.215144
20
1317.213949
11
825.905013
21
1318.762112
0
LINE
8
Layer 1
10
825.905013
20
1318.762112
11
823.484449
21
1320.130073
0
LINE
8
Layer 1
10
823.484449
20
1320.130073
11
820.966863
21
1321.308089
0
LINE
8
Layer 1
10
820.966863
20
1321.308089
11
818.365664
21
1322.286416
0
LINE
8
Layer 1
10
818.365664
20
1322.286416
11
815.694263
21
1323.055311
0
LINE
8
Layer 1
10
815.694263
20
1323.055311
11
812.966070
21
1323.605032
0
LINE
8
Layer 1
10
812.966070
20
1323.605032
11
810.194497
21
1323.925834
0
LINE
8
Layer 1
10
810.194497
20
1323.925834
11
807.392954
21
1324.007975
0
LINE
8
Layer 1
10
807.392954
20
1324.007975
11
807.392954
21
1324.007975
0
LINE
8
Layer 1
10
757.124705
20
1295.610225
11
754.304761
21
1295.083880
0
LINE
8
Layer 1
10
754.304761
20
1295.083880
11
751.578911
21
1294.232885
0
LINE
8
Layer 1
10
751.578911
20
1294.232885
11
748.937140
21
1293.115118
0
LINE
8
Layer 1
10
748.937140
20
1293.115118
11
746.369433
21
1291.788455
0
LINE
8
Layer 1
10
746.369433
20
1291.788455
11
741.416147
21
1288.739948
0
LINE
8
Layer 1
10
741.416147
20
1288.739948
11
736.638932
21
1285.550373
0
LINE
8
Layer 1
10
736.638932
20
1285.550373
11
735.165909
21
1284.080194
0
LINE
8
Layer 1
10
735.165909
20
1284.080194
11
733.219400
21
1282.534329
0
LINE
8
Layer 1
10
733.219400
20
1282.534329
11
728.891888
21
1279.272881
0
LINE
8
Layer 1
10
728.891888
20
1279.272881
11
727.003872
21
1277.585965
0
LINE
8
Layer 1
10
727.003872
20
1277.585965
11
725.628337
21
1275.880698
0
LINE
8
Layer 1
10
725.628337
20
1275.880698
11
725.209780
21
1275.025663
0
LINE
8
Layer 1
10
725.209780
20
1275.025663
11
725.011778
21
1274.171415
0
LINE
8
Layer 1
10
725.011778
20
1274.171415
11
725.065143
21
1273.319747
0
LINE
8
Layer 1
10
725.065143
20
1273.319747
11
725.400686
21
1272.472450
0
LINE
8
Layer 1
10
725.400686
20
1272.472450
11
727.911924
21
1273.013699
0
LINE
8
Layer 1
10
727.911924
20
1273.013699
11
730.375238
21
1273.698290
0
LINE
8
Layer 1
10
730.375238
20
1273.698290
11
735.156064
21
1275.465202
0
LINE
8
Layer 1
10
735.156064
20
1275.465202
11
739.739116
21
1277.708589
0
LINE
8
Layer 1
10
739.739116
20
1277.708589
11
744.120340
21
1280.363855
0
LINE
8
Layer 1
10
744.120340
20
1280.363855
11
748.295685
21
1283.366402
0
LINE
8
Layer 1
10
748.295685
20
1283.366402
11
752.261101
21
1286.651634
0
LINE
8
Layer 1
10
752.261101
20
1286.651634
11
756.012536
21
1290.154953
0
LINE
8
Layer 1
10
756.012536
20
1290.154953
11
759.545939
21
1293.811764
0
LINE
8
Layer 1
10
759.545939
20
1293.811764
11
759.850330
21
1294.296632
0
LINE
8
Layer 1
10
759.850330
20
1294.296632
11
759.818870
21
1294.685259
0
LINE
8
Layer 1
10
759.818870
20
1294.685259
11
759.532763
21
1294.988616
0
LINE
8
Layer 1
10
759.532763
20
1294.988616
11
759.073215
21
1295.217669
0
LINE
8
Layer 1
10
759.073215
20
1295.217669
11
757.958614
21
1295.496742
0
LINE
8
Layer 1
10
757.958614
20
1295.496742
11
757.124705
21
1295.610225
0
LINE
8
Layer 1
10
757.124705
20
1295.610225
11
757.124705
21
1295.610225
0
LINE
8
Layer 1
10
887.632526
20
1282.144894
11
882.955922
21
1281.402016
0
LINE
8
Layer 1
10
882.955922
20
1281.402016
11
878.282259
21
1280.516402
0
LINE
8
Layer 1
10
878.282259
20
1280.516402
11
873.634783
21
1279.462349
0
LINE
8
Layer 1
10
873.634783
20
1279.462349
11
869.036742
21
1278.214159
0
LINE
8
Layer 1
10
869.036742
20
1278.214159
11
864.511382
21
1276.746129
0
LINE
8
Layer 1
10
864.511382
20
1276.746129
11
860.081950
21
1275.032561
0
LINE
8
Layer 1
10
860.081950
20
1275.032561
11
855.771694
21
1273.047753
0
LINE
8
Layer 1
10
855.771694
20
1273.047753
11
851.603861
21
1270.766005
0
LINE
8
Layer 1
10
851.603861
20
1270.766005
11
850.920984
21
1269.585152
0
LINE
8
Layer 1
10
850.920984
20
1269.585152
11
850.658928
21
1268.626940
0
LINE
8
Layer 1
10
850.658928
20
1268.626940
11
850.771057
21
1267.875174
0
LINE
8
Layer 1
10
850.771057
20
1267.875174
11
851.210732
21
1267.313659
0
LINE
8
Layer 1
10
851.210732
20
1267.313659
11
851.931318
21
1266.926198
0
LINE
8
Layer 1
10
851.931318
20
1266.926198
11
852.886177
21
1266.696597
0
LINE
8
Layer 1
10
852.886177
20
1266.696597
11
855.312167
21
1266.646187
0
LINE
8
Layer 1
10
855.312167
20
1266.646187
11
858.115605
21
1267.032866
0
LINE
8
Layer 1
10
858.115605
20
1267.032866
11
860.923394
21
1267.727067
0
LINE
8
Layer 1
10
860.923394
20
1267.727067
11
863.362440
21
1268.599225
0
LINE
8
Layer 1
10
863.362440
20
1268.599225
11
865.059644
21
1269.519775
0
LINE
8
Layer 1
10
865.059644
20
1269.519775
11
868.268655
21
1270.900396
0
LINE
8
Layer 1
10
868.268655
20
1270.900396
11
871.604560
21
1272.124809
0
LINE
8
Layer 1
10
871.604560
20
1272.124809
11
878.384061
21
1274.469525
0
LINE
8
Layer 1
10
878.384061
20
1274.469525
11
881.691158
21
1275.772086
0
LINE
8
Layer 1
10
881.691158
20
1275.772086
11
884.852153
21
1277.282952
0
LINE
8
Layer 1
10
884.852153
20
1277.282952
11
887.798799
21
1279.093252
0
LINE
8
Layer 1
10
887.798799
20
1279.093252
11
890.462846
21
1281.294115
0
LINE
8
Layer 1
10
890.462846
20
1281.294115
11
890.333442
21
1281.659597
0
LINE
8
Layer 1
10
890.333442
20
1281.659597
11
890.069993
21
1281.891211
0
LINE
8
Layer 1
10
890.069993
20
1281.891211
11
889.280831
21
1282.072492
0
LINE
8
Layer 1
10
889.280831
20
1282.072492
11
888.375096
21
1282.077280
0
LINE
8
Layer 1
10
888.375096
20
1282.077280
11
887.632526
21
1282.144894
0
LINE
8
Layer 1
10
887.632526
20
1282.144894
11
887.632526
21
1282.144894
0
LINE
8
Layer 1
10
762.219488
20
1268.402065
11
760.213115
21
1266.722346
0
LINE
8
Layer 1
10
760.213115
20
1266.722346
11
758.483378
21
1264.752891
0
LINE
8
Layer 1
10
758.483378
20
1264.752891
11
756.973557
21
1262.558888
0
LINE
8
Layer 1
10
756.973557
20
1262.558888
11
755.626934
21
1260.205530
0
LINE
8
Layer 1
10
755.626934
20
1260.205530
11
753.196402
21
1255.281504
0
LINE
8
Layer 1
10
753.196402
20
1255.281504
11
750.738026
21
1250.502334
0
LINE
8
Layer 1
10
750.738026
20
1250.502334
11
748.660140
21
1245.336942
0
LINE
8
Layer 1
10
748.660140
20
1245.336942
11
747.585248
21
1242.361789
0
LINE
8
Layer 1
10
747.585248
20
1242.361789
11
746.652475
21
1239.328549
0
LINE
8
Layer 1
10
746.652475
20
1239.328549
11
745.986386
21
1236.389887
0
LINE
8
Layer 1
10
745.986386
20
1236.389887
11
745.711544
21
1233.698465
0
LINE
8
Layer 1
10
745.711544
20
1233.698465
11
745.759768
21
1232.493177
0
LINE
8
Layer 1
10
745.759768
20
1232.493177
11
745.952515
21
1231.406948
0
LINE
8
Layer 1
10
745.952515
20
1231.406948
11
746.305356
21
1230.458862
0
LINE
8
Layer 1
10
746.305356
20
1230.458862
11
746.833862
21
1229.668000
0
LINE
8
Layer 1
10
746.833862
20
1229.668000
11
749.592009
21
1233.638247
0
LINE
8
Layer 1
10
749.592009
20
1233.638247
11
752.205766
21
1237.724614
0
LINE
8
Layer 1
10
752.205766
20
1237.724614
11
754.654719
21
1241.921306
0
LINE
8
Layer 1
10
754.654719
20
1241.921306
11
756.918455
21
1246.222527
0
LINE
8
Layer 1
10
756.918455
20
1246.222527
11
758.976563
21
1250.622481
0
LINE
8
Layer 1
10
758.976563
20
1250.622481
11
760.808629
21
1255.115374
0
LINE
8
Layer 1
10
760.808629
20
1255.115374
11
762.394240
21
1259.695409
0
LINE
8
Layer 1
10
762.394240
20
1259.695409
11
763.712984
21
1264.356790
0
LINE
8
Layer 1
10
763.712984
20
1264.356790
11
763.785266
21
1265.505805
0
LINE
8
Layer 1
10
763.785266
20
1265.505805
11
763.666306
21
1266.731369
0
LINE
8
Layer 1
10
763.666306
20
1266.731369
11
763.197310
21
1267.780962
0
LINE
8
Layer 1
10
763.197310
20
1267.780962
11
762.781927
21
1268.160858
0
LINE
8
Layer 1
10
762.781927
20
1268.160858
11
762.219488
21
1268.402065
0
LINE
8
Layer 1
10
762.219488
20
1268.402065
11
762.219488
21
1268.402065
0
LINE
8
Layer 1
10
779.825126
20
1249.460071
11
778.924377
21
1247.253397
0
LINE
8
Layer 1
10
778.924377
20
1247.253397
11
778.417827
21
1244.917557
0
LINE
8
Layer 1
10
778.417827
20
1244.917557
11
778.225428
21
1242.485242
0
LINE
8
Layer 1
10
778.225428
20
1242.485242
11
778.267127
21
1239.989143
0
LINE
8
Layer 1
10
778.267127
20
1239.989143
11
778.732621
21
1234.936355
0
LINE
8
Layer 1
10
778.732621
20
1234.936355
11
779.173904
21
1230.020719
0
LINE
8
Layer 1
10
779.173904
20
1230.020719
11
780.105739
21
1224.183216
0
LINE
8
Layer 1
10
780.105739
20
1224.183216
11
781.328651
21
1218.322330
0
LINE
8
Layer 1
10
781.328651
20
1218.322330
11
782.166008
21
1215.469675
0
LINE
8
Layer 1
10
782.166008
20
1215.469675
11
783.216228
21
1212.715041
0
LINE
8
Layer 1
10
783.216228
20
1212.715041
11
784.526011
21
1210.093052
0
LINE
8
Layer 1
10
784.526011
20
1210.093052
11
786.142055
21
1207.638331
0
LINE
8
Layer 1
10
786.142055
20
1207.638331
11
787.034377
21
1208.132154
0
LINE
8
Layer 1
10
787.034377
20
1208.132154
11
787.743923
21
1208.773555
0
LINE
8
Layer 1
10
787.743923
20
1208.773555
11
788.289010
21
1209.546118
0
LINE
8
Layer 1
10
788.289010
20
1209.546118
11
788.687955
21
1210.433429
0
LINE
8
Layer 1
10
788.687955
20
1210.433429
11
789.120684
21
1212.486629
0
LINE
8
Layer 1
10
789.120684
20
1212.486629
11
789.188644
21
1214.801829
0
LINE
8
Layer 1
10
789.188644
20
1214.801829
11
788.816388
21
1219.692926
0
LINE
8
Layer 1
10
788.816388
20
1219.692926
11
788.669238
21
1222.006171
0
LINE
8
Layer 1
10
788.669238
20
1222.006171
11
788.743451
21
1224.056113
0
LINE
8
Layer 1
10
788.743451
20
1224.056113
11
787.912597
21
1230.619016
0
LINE
8
Layer 1
10
787.912597
20
1230.619016
11
787.345635
21
1233.919972
0
LINE
8
Layer 1
10
787.345635
20
1233.919972
11
786.605338
21
1237.178427
0
LINE
8
Layer 1
10
786.605338
20
1237.178427
11
785.637470
21
1240.352753
0
LINE
8
Layer 1
10
785.637470
20
1240.352753
11
784.387799
21
1243.401321
0
LINE
8
Layer 1
10
784.387799
20
1243.401321
11
782.802089
21
1246.282505
0
LINE
8
Layer 1
10
782.802089
20
1246.282505
11
780.826106
21
1248.954676
0
LINE
8
Layer 1
10
780.826106
20
1248.954676
11
779.825126
21
1249.460071
0
LINE
8
Layer 1
10
835.565915
20
1249.097299
11
834.369222
21
1248.482065
0
LINE
8
Layer 1
10
834.369222
20
1248.482065
11
833.631175
21
1247.848913
0
LINE
8
Layer 1
10
833.631175
20
1247.848913
11
833.304765
21
1247.203637
0
LINE
8
Layer 1
10
833.304765
20
1247.203637
11
833.342983
21
1246.552033
0
LINE
8
Layer 1
10
833.342983
20
1246.552033
11
833.698821
21
1245.899894
0
LINE
8
Layer 1
10
833.698821
20
1245.899894
11
834.325268
21
1245.253017
0
LINE
8
Layer 1
10
834.325268
20
1245.253017
11
836.201957
21
1243.998227
0
LINE
8
Layer 1
10
836.201957
20
1243.998227
11
838.596981
21
1242.834023
0
LINE
8
Layer 1
10
838.596981
20
1242.834023
11
841.134266
21
1241.806762
0
LINE
8
Layer 1
10
841.134266
20
1241.806762
11
845.131340
21
1240.348516
0
LINE
8
Layer 1
10
845.131340
20
1240.348516
11
848.477349
21
1239.169951
0
LINE
8
Layer 1
10
848.477349
20
1239.169951
11
851.893650
21
1238.128808
0
LINE
8
Layer 1
10
851.893650
20
1238.128808
11
855.366105
21
1237.251081
0
LINE
8
Layer 1
10
855.366105
20
1237.251081
11
858.880575
21
1236.562762
0
LINE
8
Layer 1
10
858.880575
20
1236.562762
11
862.422921
21
1236.089844
0
LINE
8
Layer 1
10
862.422921
20
1236.089844
11
865.979006
21
1235.858320
0
LINE
8
Layer 1
10
865.979006
20
1235.858320
11
869.534690
21
1235.894184
0
LINE
8
Layer 1
10
869.534690
20
1235.894184
11
873.075836
21
1236.223429
0
LINE
8
Layer 1
10
873.075836
20
1236.223429
11
872.486331
21
1237.459607
0
LINE
8
Layer 1
10
872.486331
20
1237.459607
11
871.696070
21
1238.570920
0
LINE
8
Layer 1
10
871.696070
20
1238.570920
11
870.726377
21
1239.568017
0
LINE
8
Layer 1
10
870.726377
20
1239.568017
11
869.598578
21
1240.461547
0
LINE
8
Layer 1
10
869.598578
20
1240.461547
11
866.953965
21
1241.980498
0
LINE
8
Layer 1
10
866.953965
20
1241.980498
11
863.932835
21
1243.212958
0
LINE
8
Layer 1
10
863.932835
20
1243.212958
11
860.705793
21
1244.244117
0
LINE
8
Layer 1
10
860.705793
20
1244.244117
11
857.443444
21
1245.159160
0
LINE
8
Layer 1
10
857.443444
20
1245.159160
11
854.316391
21
1246.043276
0
LINE
8
Layer 1
10
854.316391
20
1246.043276
11
851.495240
21
1246.981651
0
LINE
8
Layer 1
10
851.495240
20
1246.981651
11
847.554471
21
1247.784405
0
LINE
8
Layer 1
10
847.554471
20
1247.784405
11
843.578641
21
1248.396273
0
LINE
8
Layer 1
10
843.578641
20
1248.396273
11
839.578779
21
1248.829742
0
LINE
8
Layer 1
10
839.578779
20
1248.829742
11
835.565915
21
1249.097299
0
LINE
8
Layer 1
10
835.565915
20
1249.097299
11
835.565915
21
1249.097299
0
LINE
8
Layer 1
10
806.370275
20
1241.044045
11
806.334711
21
1239.852865
0
LINE
8
Layer 1
10
806.334711
20
1239.852865
11
806.451629
21
1238.660164
0
LINE
8
Layer 1
10
806.451629
20
1238.660164
11
807.086011
21
1236.278855
0
LINE
8
Layer 1
10
807.086011
20
1236.278855
11
808.159621
21
1233.917417
0
LINE
8
Layer 1
10
808.159621
20
1233.917417
11
809.558657
21
1231.593153
0
LINE
8
Layer 1
10
809.558657
20
1231.593153
11
812.877801
21
1227.125353
0
LINE
8
Layer 1
10
812.877801
20
1227.125353
11
816.133034
21
1223.013868
0
LINE
8
Layer 1
10
816.133034
20
1223.013868
11
820.151169
21
1218.900405
0
LINE
8
Layer 1
10
820.151169
20
1218.900405
11
824.473871
21
1215.076236
0
LINE
8
Layer 1
10
824.473871
20
1215.076236
11
829.098758
21
1211.650572
0
LINE
8
Layer 1
10
829.098758
20
1211.650572
11
831.523778
21
1210.121307
0
LINE
8
Layer 1
10
831.523778
20
1210.121307
11
834.023450
21
1208.732623
0
LINE
8
Layer 1
10
834.023450
20
1208.732623
11
833.990801
21
1210.474987
0
LINE
8
Layer 1
10
833.990801
20
1210.474987
11
833.730614
21
1212.167862
0
LINE
8
Layer 1
10
833.730614
20
1212.167862
11
833.265060
21
1213.814151
0
LINE
8
Layer 1
10
833.265060
20
1213.814151
11
832.616308
21
1215.416757
0
LINE
8
Layer 1
10
832.616308
20
1215.416757
11
830.857895
21
1218.502533
0
LINE
8
Layer 1
10
830.857895
20
1218.502533
11
828.632736
21
1221.448417
0
LINE
8
Layer 1
10
828.632736
20
1221.448417
11
826.118191
21
1224.277634
0
LINE
8
Layer 1
10
826.118191
20
1224.277634
11
823.491622
21
1227.013409
0
LINE
8
Layer 1
10
823.491622
20
1227.013409
11
820.930391
21
1229.678969
0
LINE
8
Layer 1
10
820.930391
20
1229.678969
11
818.611859
21
1232.297539
0
LINE
8
Layer 1
10
818.611859
20
1232.297539
11
815.824690
21
1234.849607
0
LINE
8
Layer 1
10
815.824690
20
1234.849607
11
812.873370
21
1237.227994
0
LINE
8
Layer 1
10
812.873370
20
1237.227994
11
809.730899
21
1239.327781
0
LINE
8
Layer 1
10
809.730899
20
1239.327781
11
806.370275
21
1241.044045
0
LINE
8
Layer 1
10
806.370275
20
1241.044045
11
806.370275
21
1241.044045
0
LINE
8
Layer 1
10
811.211609
20
1062.982618
11
808.522243
21
1062.886496
0
LINE
8
Layer 1
10
808.522243
20
1062.886496
11
805.977850
21
1062.290026
0
LINE
8
Layer 1
10
805.977850
20
1062.290026
11
803.561123
21
1061.286795
0
LINE
8
Layer 1
10
803.561123
20
1061.286795
11
801.254754
21
1059.970388
0
LINE
8
Layer 1
10
801.254754
20
1059.970388
11
799.041436
21
1058.434390
0
LINE
8
Layer 1
10
799.041436
20
1058.434390
11
796.903863
21
1056.772389
0
LINE
8
Layer 1
10
796.903863
20
1056.772389
11
792.786719
21
1053.444715
0
LINE
8
Layer 1
10
792.786719
20
1053.444715
11
786.962770
21
1047.847678
0
LINE
8
Layer 1
10
786.962770
20
1047.847678
11
781.375574
21
1042.008218
0
LINE
8
Layer 1
10
781.375574
20
1042.008218
11
770.454317
21
1030.129954
0
LINE
8
Layer 1
10
770.454317
20
1030.129954
11
768.609952
21
1028.735409
0
LINE
8
Layer 1
10
768.609952
20
1028.735409
11
766.608397
21
1027.613318
0
LINE
8
Layer 1
10
766.608397
20
1027.613318
11
764.496582
21
1026.803642
0
LINE
8
Layer 1
10
764.496582
20
1026.803642
11
762.321439
21
1026.346344
0
LINE
8
Layer 1
10
762.321439
20
1026.346344
11
760.129898
21
1026.281386
0
LINE
8
Layer 1
10
760.129898
20
1026.281386
11
757.968890
21
1026.648730
0
LINE
8
Layer 1
10
757.968890
20
1026.648730
11
755.885345
21
1027.488338
0
LINE
8
Layer 1
10
755.885345
20
1027.488338
11
753.926195
21
1028.840173
0
LINE
8
Layer 1
10
753.926195
20
1028.840173
11
751.351665
21
1030.012160
0
LINE
8
Layer 1
10
751.351665
20
1030.012160
11
748.688305
21
1030.833244
0
LINE
8
Layer 1
10
748.688305
20
1030.833244
11
745.956180
21
1031.350833
0
LINE
8
Layer 1
10
745.956180
20
1031.350833
11
743.175353
21
1031.612342
0
LINE
8
Layer 1
10
743.175353
20
1031.612342
11
740.365889
21
1031.665180
0
LINE
8
Layer 1
10
740.365889
20
1031.665180
11
737.547853
21
1031.556759
0
LINE
8
Layer 1
10
737.547853
20
1031.556759
11
731.966321
21
1031.045785
0
LINE
8
Layer 1
10
731.966321
20
1031.045785
11
729.847360
21
1030.924670
0
LINE
8
Layer 1
10
729.847360
20
1030.924670
11
727.722575
21
1031.065719
0
LINE
8
Layer 1
10
727.722575
20
1031.065719
11
723.478424
21
1031.655875
0
LINE
8
Layer 1
10
723.478424
20
1031.655875
11
721.370507
21
1031.865765
0
LINE
8
Layer 1
10
721.370507
20
1031.865765
11
719.279659
21
1031.859387
0
LINE
8
Layer 1
10
719.279659
20
1031.859387
11
717.211605
21
1031.517132
0
LINE
8
Layer 1
10
717.211605
20
1031.517132
11
715.172069
21
1030.719391
0
LINE
8
Layer 1
10
715.172069
20
1030.719391
11
713.664840
21
1030.089227
0
LINE
8
Layer 1
10
713.664840
20
1030.089227
11
712.264383
21
1029.097849
0
LINE
8
Layer 1
10
712.264383
20
1029.097849
11
711.100344
21
1027.867694
0
LINE
8
Layer 1
10
711.100344
20
1027.867694
11
710.302367
21
1026.521201
0
LINE
8
Layer 1
10
710.302367
20
1026.521201
11
710.000099
21
1025.180811
0
LINE
8
Layer 1
10
710.000099
20
1025.180811
11
710.075369
21
1024.551167
0
LINE
8
Layer 1
10
710.075369
20
1024.551167
11
710.323184
21
1023.968962
0
LINE
8
Layer 1
10
710.323184
20
1023.968962
11
710.759748
21
1023.449503
0
LINE
8
Layer 1
10
710.759748
20
1023.449503
11
711.401268
21
1023.008094
0
LINE
8
Layer 1
10
711.401268
20
1023.008094
11
712.263949
21
1022.660039
0
LINE
8
Layer 1
10
712.263949
20
1022.660039
11
713.363996
21
1022.420644
0
LINE
8
Layer 1
10
713.363996
20
1022.420644
11
718.969173
21
1020.712794
0
LINE
8
Layer 1
10
718.969173
20
1020.712794
11
724.679258
21
1019.448533
0
LINE
8
Layer 1
10
724.679258
20
1019.448533
11
727.568159
21
1019.015765
0
LINE
8
Layer 1
10
727.568159
20
1019.015765
11
730.476708
21
1018.733514
0
LINE
8
Layer 1
10
730.476708
20
1018.733514
11
733.402711
21
1018.614985
0
LINE
8
Layer 1
10
733.402711
20
1018.614985
11
736.343975
21
1018.673386
0
LINE
8
Layer 1
10
736.343975
20
1018.673386
11
738.689843
21
1018.585114
0
LINE
8
Layer 1
10
738.689843
20
1018.585114
11
741.110887
21
1018.658286
0
LINE
8
Layer 1
10
741.110887
20
1018.658286
11
746.032863
21
1018.927228
0
LINE
8
Layer 1
10
746.032863
20
1018.927228
11
748.460976
21
1018.942132
0
LINE
8
Layer 1
10
748.460976
20
1018.942132
11
750.818626
21
1018.756746
0
LINE
8
Layer 1
10
750.818626
20
1018.756746
11
753.069403
21
1018.280639
0
LINE
8
Layer 1
10
753.069403
20
1018.280639
11
755.176898
21
1017.423376
0
LINE
8
Layer 1
10
755.176898
20
1017.423376
11
754.747668
21
1015.350799
0
LINE
8
Layer 1
10
754.747668
20
1015.350799
11
753.894066
21
1013.456262
0
LINE
8
Layer 1
10
753.894066
20
1013.456262
11
752.717718
21
1011.699460
0
LINE
8
Layer 1
10
752.717718
20
1011.699460
11
751.320253
21
1010.040088
0
LINE
8
Layer 1
10
751.320253
20
1010.040088
11
748.268478
21
1006.852409
0
LINE
8
Layer 1
10
748.268478
20
1006.852409
11
746.817422
21
1005.243492
0
LINE
8
Layer 1
10
746.817422
20
1005.243492
11
745.551758
21
1003.570783
0
LINE
8
Layer 1
10
745.551758
20
1003.570783
11
744.061045
21
1001.612952
0
LINE
8
Layer 1
10
744.061045
20
1001.612952
11
742.713384
21
999.577138
0
LINE
8
Layer 1
10
742.713384
20
999.577138
11
740.312332
21
995.341555
0
LINE
8
Layer 1
10
740.312332
20
995.341555
11
738.078835
21
991.004019
0
LINE
8
Layer 1
10
738.078835
20
991.004019
11
735.743126
21
986.704513
0
LINE
8
Layer 1
10
735.743126
20
986.704513
11
733.884856
21
982.537940
0
LINE
8
Layer 1
10
733.884856
20
982.537940
11
732.517628
21
978.206760
0
LINE
8
Layer 1
10
732.517628
20
978.206760
11
732.042788
21
975.989814
0
LINE
8
Layer 1
10
732.042788
20
975.989814
11
731.720267
21
973.744161
0
LINE
8
Layer 1
10
731.720267
20
973.744161
11
731.559920
21
971.473951
0
LINE
8
Layer 1
10
731.559920
20
971.473951
11
731.571599
21
969.183331
0
LINE
8
Layer 1
10
731.571599
20
969.183331
11
731.680339
21
967.633520
0
LINE
8
Layer 1
10
731.680339
20
967.633520
11
731.649250
21
966.043698
0
LINE
8
Layer 1
10
731.649250
20
966.043698
11
731.444342
21
962.827371
0
LINE
8
Layer 1
10
731.444342
20
962.827371
11
731.408900
21
961.242540
0
LINE
8
Layer 1
10
731.408900
20
961.242540
11
731.510385
21
959.701046
0
LINE
8
Layer 1
10
731.510385
20
959.701046
11
731.817984
21
958.223725
0
LINE
8
Layer 1
10
731.817984
20
958.223725
11
732.400886
21
956.831416
0
LINE
8
Layer 1
10
732.400886
20
956.831416
11
733.607843
21
956.985423
0
LINE
8
Layer 1
10
733.607843
20
956.985423
11
734.735820
21
957.300534
0
LINE
8
Layer 1
10
734.735820
20
957.300534
11
735.790707
21
957.761167
0
LINE
8
Layer 1
10
735.790707
20
957.761167
11
736.778395
21
958.351743
0
LINE
8
Layer 1
10
736.778395
20
958.351743
11
738.575733
21
959.860405
0
LINE
8
Layer 1
10
738.575733
20
959.860405
11
740.174958
21
961.701880
0
LINE
8
Layer 1
10
740.174958
20
961.701880
11
741.623193
21
963.751528
0
LINE
8
Layer 1
10
741.623193
20
963.751528
11
742.967561
21
965.884711
0
LINE
8
Layer 1
10
742.967561
20
965.884711
11
745.533191
21
969.903124
0
LINE
8
Layer 1
10
745.533191
20
969.903124
11
747.364436
21
973.462734
0
LINE
8
Layer 1
10
747.364436
20
973.462734
11
748.883633
21
977.136729
0
LINE
8
Layer 1
10
748.883633
20
977.136729
11
750.132639
21
980.904965
0
LINE
8
Layer 1
10
750.132639
20
980.904965
11
751.153306
21
984.747301
0
LINE
8
Layer 1
10
751.153306
20
984.747301
11
751.987491
21
988.643593
0
LINE
8
Layer 1
10
751.987491
20
988.643593
11
752.677047
21
992.573698
0
LINE
8
Layer 1
10
752.677047
20
992.573698
11
753.789692
21
1000.454776
0
LINE
8
Layer 1
10
753.789692
20
1000.454776
11
754.560775
21
1003.320244
0
LINE
8
Layer 1
10
754.560775
20
1003.320244
11
755.651214
21
1006.070372
0
LINE
8
Layer 1
10
755.651214
20
1006.070372
11
757.041088
21
1008.676109
0
LINE
8
Layer 1
10
757.041088
20
1008.676109
11
758.710474
21
1011.108406
0
LINE
8
Layer 1
10
758.710474
20
1011.108406
11
760.639447
21
1013.338211
0
LINE
8
Layer 1
10
760.639447
20
1013.338211
11
762.808085
21
1015.336474
0
LINE
8
Layer 1
10
762.808085
20
1015.336474
11
765.196466
21
1017.074147
0
LINE
8
Layer 1
10
765.196466
20
1017.074147
11
767.784665
21
1018.522177
0
LINE
8
Layer 1
10
767.784665
20
1018.522177
11
768.918062
21
1019.617047
0
LINE
8
Layer 1
10
768.918062
20
1019.617047
11
770.423460
21
1020.573791
0
LINE
8
Layer 1
10
770.423460
20
1020.573791
11
772.086882
21
1021.290677
0
LINE
8
Layer 1
10
772.086882
20
1021.290677
11
773.694354
21
1021.665969
0
LINE
8
Layer 1
10
773.694354
20
1021.665969
11
775.031901
21
1021.597934
0
LINE
8
Layer 1
10
775.031901
20
1021.597934
11
775.532585
21
1021.365877
0
LINE
8
Layer 1
10
775.532585
20
1021.365877
11
775.885547
21
1020.984838
0
LINE
8
Layer 1
10
775.885547
20
1020.984838
11
776.064040
21
1020.442100
0
LINE
8
Layer 1
10
776.064040
20
1020.442100
11
776.041318
21
1019.724946
0
LINE
8
Layer 1
10
776.041318
20
1019.724946
11
775.790633
21
1018.820659
0
LINE
8
Layer 1
10
775.790633
20
1018.820659
11
775.285238
21
1017.716524
0
LINE
8
Layer 1
10
775.285238
20
1017.716524
11
774.455416
21
1015.223249
0
LINE
8
Layer 1
10
774.455416
20
1015.223249
11
773.958064
21
1012.680139
0
LINE
8
Layer 1
10
773.958064
20
1012.680139
11
773.721387
21
1010.098838
0
LINE
8
Layer 1
10
773.721387
20
1010.098838
11
773.673588
21
1007.490991
0
LINE
8
Layer 1
10
773.673588
20
1007.490991
11
773.857443
21
1002.242235
0
LINE
8
Layer 1
10
773.857443
20
1002.242235
11
773.935265
21
997.027027
0
LINE
8
Layer 1
10
773.935265
20
997.027027
11
774.092179
21
993.142447
0
LINE
8
Layer 1
10
774.092179
20
993.142447
11
774.430977
21
989.268204
0
LINE
8
Layer 1
10
774.430977
20
989.268204
11
774.965827
21
985.419387
0
LINE
8
Layer 1
10
774.965827
20
985.419387
11
775.710901
21
981.611083
0
LINE
8
Layer 1
10
775.710901
20
981.611083
11
776.680368
21
977.858380
0
LINE
8
Layer 1
10
776.680368
20
977.858380
11
777.888398
21
974.176366
0
LINE
8
Layer 1
10
777.888398
20
974.176366
11
779.349161
21
970.580129
0
LINE
8
Layer 1
10
779.349161
20
970.580129
11
781.076828
21
967.084756
0
LINE
8
Layer 1
10
781.076828
20
967.084756
11
781.666187
21
965.530812
0
LINE
8
Layer 1
10
781.666187
20
965.530812
11
782.538117
21
963.848420
0
LINE
8
Layer 1
10
782.538117
20
963.848420
11
783.627248
21
962.240916
0
LINE
8
Layer 1
10
783.627248
20
962.240916
11
784.868209
21
960.911636
0
LINE
8
Layer 1
10
784.868209
20
960.911636
11
786.195628
21
960.063915
0
LINE
8
Layer 1
10
786.195628
20
960.063915
11
786.871332
21
959.884181
0
LINE
8
Layer 1
10
786.871332
20
959.884181
11
787.544136
21
959.901089
0
LINE
8
Layer 1
10
787.544136
20
959.901089
11
788.205870
21
960.140054
0
LINE
8
Layer 1
10
788.205870
20
960.140054
11
788.848362
21
960.626494
0
LINE
8
Layer 1
10
788.848362
20
960.626494
11
789.463440
21
961.385825
0
LINE
8
Layer 1
10
789.463440
20
961.385825
11
790.042934
21
962.443465
0
LINE
8
Layer 1
10
790.042934
20
962.443465
11
791.053242
21
966.608612
0
LINE
8
Layer 1
10
791.053242
20
966.608612
11
791.748084
21
970.855897
0
LINE
8
Layer 1
10
791.748084
20
970.855897
11
792.168061
21
975.144831
0
LINE
8
Layer 1
10
792.168061
20
975.144831
11
792.353774
21
979.434925
0
LINE
8
Layer 1
10
792.353774
20
979.434925
11
791.747735
21
985.550715
0
LINE
8
Layer 1
10
791.747735
20
985.550715
11
790.853895
21
991.637055
0
LINE
8
Layer 1
10
790.853895
20
991.637055
11
789.747399
21
997.691323
0
LINE
8
Layer 1
10
789.747399
20
997.691323
11
788.503394
21
1003.710895
0
LINE
8
Layer 1
10
788.503394
20
1003.710895
11
787.774110
21
1006.382407
0
LINE
8
Layer 1
10
787.774110
20
1006.382407
11
786.861127
21
1008.979437
0
LINE
8
Layer 1
10
786.861127
20
1008.979437
11
784.620716
21
1014.001255
0
LINE
8
Layer 1
10
784.620716
20
1014.001255
11
782.055474
21
1018.878764
0
LINE
8
Layer 1
10
782.055474
20
1018.878764
11
779.438711
21
1023.714376
0
LINE
8
Layer 1
10
779.438711
20
1023.714376
11
779.625388
21
1025.006962
0
LINE
8
Layer 1
10
779.625388
20
1025.006962
11
779.993257
21
1026.225984
0
LINE
8
Layer 1
10
779.993257
20
1026.225984
11
780.523725
21
1027.377915
0
LINE
8
Layer 1
10
780.523725
20
1027.377915
11
781.198196
21
1028.469230
0
LINE
8
Layer 1
10
781.198196
20
1028.469230
11
782.904774
21
1030.495908
0
LINE
8
Layer 1
10
782.904774
20
1030.495908
11
784.964239
21
1032.357814
0
LINE
8
Layer 1
10
784.964239
20
1032.357814
11
789.546815
21
1035.794486
0
LINE
8
Layer 1
10
789.546815
20
1035.794486
11
791.772421
21
1037.472841
0
LINE
8
Layer 1
10
791.772421
20
1037.472841
11
793.755902
21
1039.193602
0
LINE
8
Layer 1
10
793.755902
20
1039.193602
11
803.059409
21
1046.727088
0
LINE
8
Layer 1
10
803.059409
20
1046.727088
11
807.699647
21
1050.504958
0
LINE
8
Layer 1
10
807.699647
20
1050.504958
11
812.437949
21
1054.161376
0
LINE
8
Layer 1
10
812.437949
20
1054.161376
11
813.607805
21
1055.005143
0
LINE
8
Layer 1
10
813.607805
20
1055.005143
11
814.609928
21
1056.064975
0
LINE
8
Layer 1
10
814.609928
20
1056.064975
11
815.364503
21
1057.248983
0
LINE
8
Layer 1
10
815.364503
20
1057.248983
11
815.791712
21
1058.465279
0
LINE
8
Layer 1
10
815.791712
20
1058.465279
11
815.811739
21
1059.621975
0
LINE
8
Layer 1
10
815.811739
20
1059.621975
11
815.344767
21
1060.627181
0
LINE
8
Layer 1
10
815.344767
20
1060.627181
11
814.903713
21
1061.044260
0
LINE
8
Layer 1
10
814.903713
20
1061.044260
11
814.310979
21
1061.389009
0
LINE
8
Layer 1
10
814.310979
20
1061.389009
11
812.630558
21
1061.815570
0
LINE
8
Layer 1
10
812.630558
20
1061.815570
11
811.814573
21
1062.306520
0
LINE
8
Layer 1
10
811.814573
20
1062.306520
11
811.211609
21
1062.982618
0
LINE
8
Layer 1
10
384.133493
20
1063.001338
11
381.779687
21
1062.973796
0
LINE
8
Layer 1
10
381.779687
20
1062.973796
11
379.389161
21
1062.739420
0
LINE
8
Layer 1
10
379.389161
20
1062.739420
11
378.863570
21
1062.424771
0
LINE
8
Layer 1
10
378.863570
20
1062.424771
11
378.620993
21
1062.519694
0
LINE
8
Layer 1
10
378.620993
20
1062.519694
11
378.499709
21
1062.206800
0
LINE
8
Layer 1
10
378.499709
20
1062.206800
11
377.779741
21
1061.698443
0
LINE
8
Layer 1
10
377.779741
20
1061.698443
11
377.247593
21
1061.018184
0
LINE
8
Layer 1
10
377.247593
20
1061.018184
11
376.931054
21
1060.214606
0
LINE
8
Layer 1
10
376.931054
20
1060.214606
11
376.857911
21
1059.336295
0
LINE
8
Layer 1
10
376.857911
20
1059.336295
11
377.172560
21
1058.808949
0
LINE
8
Layer 1
10
377.172560
20
1058.808949
11
377.077637
21
1058.566372
0
LINE
8
Layer 1
10
377.077637
20
1058.566372
11
378.014867
21
1056.752354
0
LINE
8
Layer 1
10
378.014867
20
1056.752354
11
379.124595
21
1055.107608
0
LINE
8
Layer 1
10
379.124595
20
1055.107608
11
380.358256
21
1053.618124
0
LINE
8
Layer 1
10
380.358256
20
1053.618124
11
381.667286
21
1052.269891
0
LINE
8
Layer 1
10
381.667286
20
1052.269891
11
381.674486
21
1052.262691
0
LINE
8
Layer 1
10
381.674486
20
1052.262691
11
383.682234
21
1050.488277
0
LINE
8
Layer 1
10
383.682234
20
1050.488277
11
385.771564
21
1048.886693
0
LINE
8
Layer 1
10
385.771564
20
1048.886693
11
390.062765
21
1046.075191
0
LINE
8
Layer 1
10
390.062765
20
1046.075191
11
390.069965
21
1046.071591
0
LINE
8
Layer 1
10
390.069965
20
1046.071591
11
394.565367
21
1043.498323
0
LINE
8
Layer 1
10
394.565367
20
1043.498323
11
399.067665
21
1041.101001
0
LINE
8
Layer 1
10
399.067665
20
1041.101001
11
403.511786
21
1038.761875
0
LINE
8
Layer 1
10
403.511786
20
1038.761875
11
407.832653
21
1036.363192
0
LINE
8
Layer 1
10
407.832653
20
1036.363192
11
407.844983
21
1036.355992
0
LINE
8
Layer 1
10
407.844983
20
1036.355992
11
411.287271
21
1034.190690
0
LINE
8
Layer 1
10
411.287271
20
1034.190690
11
414.331310
21
1031.817319
0
LINE
8
Layer 1
10
414.331310
20
1031.817319
11
415.834697
21
1030.221162
0
LINE
8
Layer 1
10
415.834697
20
1030.221162
11
416.832671
21
1028.607550
0
LINE
8
Layer 1
10
416.832671
20
1028.607550
11
416.836271
21
1028.598550
0
LINE
8
Layer 1
10
416.836271
20
1028.598550
11
417.060362
21
1027.747238
0
LINE
8
Layer 1
10
417.060362
20
1027.747238
11
417.094670
21
1026.886435
0
LINE
8
Layer 1
10
417.094670
20
1026.886435
11
410.642441
21
1028.277171
0
LINE
8
Layer 1
10
410.642441
20
1028.277171
11
404.156071
21
1029.497442
0
LINE
8
Layer 1
10
404.156071
20
1029.497442
11
397.639944
21
1030.544893
0
LINE
8
Layer 1
10
397.639944
20
1030.544893
11
391.098442
21
1031.417166
0
LINE
8
Layer 1
10
391.098442
20
1031.417166
11
384.535949
21
1032.111903
0
LINE
8
Layer 1
10
384.535949
20
1032.111903
11
377.956847
21
1032.626748
0
LINE
8
Layer 1
10
377.956847
20
1032.626748
11
371.365519
21
1032.959344
0
LINE
8
Layer 1
10
371.365519
20
1032.959344
11
364.766348
21
1033.107334
0
LINE
8
Layer 1
10
364.766348
20
1033.107334
11
364.764548
21
1033.107334
0
LINE
8
Layer 1
10
364.764548
20
1033.107334
11
357.007322
21
1033.040554
0
LINE
8
Layer 1
10
357.007322
20
1033.040554
11
355.846150
21
1032.774742
0
LINE
8
Layer 1
10
355.846150
20
1032.774742
11
354.909532
21
1032.107479
0
LINE
8
Layer 1
10
354.909532
20
1032.107479
11
354.291436
21
1031.137711
0
LINE
8
Layer 1
10
354.291436
20
1031.137711
11
354.085832
21
1029.964381
0
LINE
8
Layer 1
10
354.085832
20
1029.964381
11
354.351471
21
1028.803647
0
LINE
8
Layer 1
10
354.351471
20
1028.803647
11
355.018289
21
1027.867230
0
LINE
8
Layer 1
10
355.018289
20
1027.867230
11
355.987483
21
1027.249018
0
LINE
8
Layer 1
10
355.987483
20
1027.249018
11
357.160250
21
1027.042900
0
LINE
8
Layer 1
10
357.160250
20
1027.042900
11
364.715327
21
1027.107970
0
LINE
8
Layer 1
10
364.715327
20
1027.107970
11
371.509467
21
1026.953234
0
LINE
8
Layer 1
10
371.509467
20
1026.953234
11
378.296621
21
1026.602725
0
LINE
8
Layer 1
10
378.296621
20
1026.602725
11
385.071214
21
1026.057436
0
LINE
8
Layer 1
10
385.071214
20
1026.057436
11
391.827671
21
1025.318363
0
LINE
8
Layer 1
10
391.827671
20
1025.318363
11
398.560417
21
1024.386498
0
LINE
8
Layer 1
10
398.560417
20
1024.386498
11
405.263878
21
1023.262837
0
LINE
8
Layer 1
10
405.263878
20
1023.262837
11
411.932478
21
1021.948373
0
LINE
8
Layer 1
10
411.932478
20
1021.948373
11
418.560644
21
1020.444100
0
LINE
8
Layer 1
10
418.560644
20
1020.444100
11
419.575980
21
1020.375256
0
LINE
8
Layer 1
10
419.575980
20
1020.375256
11
420.531367
21
1020.638872
0
LINE
8
Layer 1
10
420.531367
20
1020.638872
11
421.349096
21
1021.198851
0
LINE
8
Layer 1
10
421.349096
20
1021.198851
11
421.951457
21
1022.019100
0
LINE
8
Layer 1
10
421.951457
20
1022.019100
11
422.664231
21
1023.751719
0
LINE
8
Layer 1
10
422.664231
20
1023.751719
11
423.101072
21
1025.675350
0
LINE
8
Layer 1
10
423.101072
20
1025.675350
11
423.187568
21
1027.057298
0
LINE
8
Layer 1
10
423.187568
20
1027.057298
11
423.079983
21
1028.416787
0
LINE
8
Layer 1
10
423.079983
20
1028.416787
11
422.790900
21
1029.737101
0
LINE
8
Layer 1
10
422.790900
20
1029.737101
11
422.332904
21
1031.001523
0
LINE
8
Layer 1
10
422.332904
20
1031.001523
11
421.518054
21
1032.562718
0
LINE
8
Layer 1
10
421.518054
20
1032.562718
11
420.552393
21
1033.941767
0
LINE
8
Layer 1
10
420.552393
20
1033.941767
11
418.390130
21
1036.238047
0
LINE
8
Layer 1
10
418.390130
20
1036.238047
11
418.374290
21
1036.252087
0
LINE
8
Layer 1
10
418.374290
20
1036.252087
11
416.556892
21
1037.777009
0
LINE
8
Layer 1
10
416.556892
20
1037.777009
11
414.681692
21
1039.142893
0
LINE
8
Layer 1
10
414.681692
20
1039.142893
11
410.880737
21
1041.530803
0
LINE
8
Layer 1
10
410.880737
20
1041.530803
11
410.866697
21
1041.539803
0
LINE
8
Layer 1
10
410.866697
20
1041.539803
11
406.358178
21
1044.049350
0
LINE
8
Layer 1
10
406.358178
20
1044.049350
11
401.863329
21
1046.419753
0
LINE
8
Layer 1
10
401.863329
20
1046.419753
11
397.446627
21
1048.767174
0
LINE
8
Layer 1
10
397.446627
20
1048.767174
11
393.172553
21
1051.207774
0
LINE
8
Layer 1
10
393.172553
20
1051.207774
11
389.281745
21
1053.756729
0
LINE
8
Layer 1
10
389.281745
20
1053.756729
11
387.489292
21
1055.127739
0
LINE
8
Layer 1
10
387.489292
20
1055.127739
11
385.830173
21
1056.590197
0
LINE
8
Layer 1
10
385.830173
20
1056.590197
11
385.826573
21
1056.595597
0
LINE
8
Layer 1
10
385.826573
20
1056.595597
11
385.822973
21
1056.597397
0
LINE
8
Layer 1
10
385.822973
20
1056.597397
11
385.613786
21
1056.831190
0
LINE
8
Layer 1
10
385.613786
20
1056.831190
11
389.735799
21
1056.293248
0
LINE
8
Layer 1
10
389.735799
20
1056.293248
11
393.886055
21
1055.356387
0
LINE
8
Layer 1
10
393.886055
20
1055.356387
11
395.074215
21
1055.276824
0
LINE
8
Layer 1
10
395.074215
20
1055.276824
11
396.162949
21
1055.646074
0
LINE
8
Layer 1
10
396.162949
20
1055.646074
11
397.033891
21
1056.396505
0
LINE
8
Layer 1
10
397.033891
20
1056.396505
11
397.568675
21
1057.460488
0
LINE
8
Layer 1
10
397.568675
20
1057.460488
11
397.650783
21
1058.628223
0
LINE
8
Layer 1
10
397.650783
20
1058.628223
11
397.279739
21
1059.738481
0
LINE
8
Layer 1
10
397.279739
20
1059.738481
11
396.512039
21
1060.622214
0
LINE
8
Layer 1
10
396.512039
20
1060.622214
11
395.464574
21
1061.144863
0
LINE
8
Layer 1
10
395.464574
20
1061.144863
11
389.927237
21
1062.399475
0
LINE
8
Layer 1
10
389.927237
20
1062.399475
11
387.063238
21
1062.802086
0
LINE
8
Layer 1
10
387.063238
20
1062.802086
11
384.140738
21
1063.001113
0
LINE
8
Layer 1
10
384.140738
20
1063.001113
11
384.133538
21
1063.001113
0
LINE
8
Layer 1
10
384.133538
20
1063.001113
11
384.133493
21
1063.001338
0
LINE
8
Layer 1
10
407.658296
20
1055.883949
11
406.670726
21
1055.255349
0
LINE
8
Layer 1
10
406.670726
20
1055.255349
11
405.998921
21
1054.296646
0
LINE
8
Layer 1
10
405.998921
20
1054.296646
11
405.743332
21
1053.133436
0
LINE
8
Layer 1
10
405.743332
20
1053.133436
11
405.946458
21
1052.001748
0
LINE
8
Layer 1
10
405.946458
20
1052.001748
11
406.559021
21
1051.028741
0
LINE
8
Layer 1
10
406.559021
20
1051.028741
11
407.531738
21
1050.341569
0
LINE
8
Layer 1
10
407.531738
20
1050.341569
11
414.237617
21
1047.206134
0
LINE
8
Layer 1
10
414.237617
20
1047.206134
11
420.882320
21
1043.834146
0
LINE
8
Layer 1
10
420.882320
20
1043.834146
11
431.060060
21
1036.351141
0
LINE
8
Layer 1
10
431.060060
20
1036.351141
11
437.985466
21
1030.965951
0
LINE
8
Layer 1
10
437.985466
20
1030.965951
11
444.731410
21
1025.390607
0
LINE
8
Layer 1
10
444.731410
20
1025.390607
11
451.246218
21
1019.584398
0
LINE
8
Layer 1
10
451.246218
20
1019.584398
11
457.478219
21
1013.506612
0
LINE
8
Layer 1
10
457.478219
20
1013.506612
11
462.512262
21
1008.088518
0
LINE
8
Layer 1
10
462.512262
20
1008.088518
11
467.243844
21
1002.428807
0
LINE
8
Layer 1
10
467.243844
20
1002.428807
11
471.617225
21
996.517763
0
LINE
8
Layer 1
10
471.617225
20
996.517763
11
475.576661
21
990.345670
0
LINE
8
Layer 1
10
475.576661
20
990.345670
11
475.578461
21
990.343870
0
LINE
8
Layer 1
10
475.578461
20
990.343870
11
478.634160
21
984.774866
0
LINE
8
Layer 1
10
478.634160
20
984.774866
11
481.294199
21
979.016023
0
LINE
8
Layer 1
10
481.294199
20
979.016023
11
483.525667
21
973.090879
0
LINE
8
Layer 1
10
483.525667
20
973.090879
11
485.295653
21
967.022971
0
LINE
8
Layer 1
10
485.295653
20
967.022971
11
485.806377
21
965.946891
0
LINE
8
Layer 1
10
485.806377
20
965.946891
11
486.660415
21
965.176861
0
LINE
8
Layer 1
10
486.660415
20
965.176861
11
487.740860
21
964.783206
0
LINE
8
Layer 1
10
487.740860
20
964.783206
11
488.930807
21
964.836250
0
LINE
8
Layer 1
10
488.930807
20
964.836250
11
489.990077
21
965.335217
0
LINE
8
Layer 1
10
489.990077
20
965.335217
11
490.777662
21
966.201666
0
LINE
8
Layer 1
10
490.777662
20
966.201666
11
491.173583
21
967.303604
0
LINE
8
Layer 1
10
491.173583
20
967.303604
11
491.117528
21
968.473168
0
LINE
8
Layer 1
10
491.117528
20
968.473168
11
489.216691
21
974.991279
0
LINE
8
Layer 1
10
489.216691
20
974.991279
11
486.828551
21
981.333417
0
LINE
8
Layer 1
10
486.828551
20
981.333417
11
483.990368
21
987.477753
0
LINE
8
Layer 1
10
483.990368
20
987.477753
11
480.739403
21
993.402457
0
LINE
8
Layer 1
10
480.739403
20
993.402457
11
480.739403
21
993.404257
0
LINE
8
Layer 1
10
480.739403
20
993.404257
11
476.553388
21
999.930592
0
LINE
8
Layer 1
10
476.553388
20
999.930592
11
471.955996
21
1006.145055
0
LINE
8
Layer 1
10
471.955996
20
1006.145055
11
467.009046
21
1012.061921
0
LINE
8
Layer 1
10
467.009046
20
1012.061921
11
461.774360
21
1017.695464
0
LINE
8
Layer 1
10
461.774360
20
1017.695464
11
461.774360
21
1017.697264
0
LINE
8
Layer 1
10
461.774360
20
1017.697264
11
455.333254
21
1023.979485
0
LINE
8
Layer 1
10
455.333254
20
1023.979485
11
448.634012
21
1029.950032
0
LINE
8
Layer 1
10
448.634012
20
1029.950032
11
441.732093
21
1035.653421
0
LINE
8
Layer 1
10
441.732093
20
1035.653421
11
434.682956
21
1041.134173
0
LINE
8
Layer 1
10
434.682956
20
1041.134173
11
424.199360
21
1048.843942
0
LINE
8
Layer 1
10
424.199360
20
1048.843942
11
423.837254
21
1049.065423
0
LINE
8
Layer 1
10
423.837254
20
1049.065423
11
416.972677
21
1052.550539
0
LINE
8
Layer 1
10
416.972677
20
1052.550539
11
409.954052
21
1055.831245
0
LINE
8
Layer 1
10
409.954052
20
1055.831245
11
408.811442
21
1056.085961
0
LINE
8
Layer 1
10
408.811442
20
1056.085961
11
407.658341
21
1055.883985
0
LINE
8
Layer 1
10
407.658341
20
1055.883985
11
407.658296
21
1055.883949
0
LINE
8
Layer 1
10
341.837012
20
1032.156997
11
335.548644
21
1031.487428
0
LINE
8
Layer 1
10
335.548644
20
1031.487428
11
329.278737
21
1030.635112
0
LINE
8
Layer 1
10
329.278737
20
1030.635112
11
323.034446
21
1029.596165
0
LINE
8
Layer 1
10
323.034446
20
1029.596165
11
316.822931
21
1028.366702
0
LINE
8
Layer 1
10
316.822931
20
1028.366702
11
310.651347
21
1026.942838
0
LINE
8
Layer 1
10
310.651347
20
1026.942838
11
304.526851
21
1025.320687
0
LINE
8
Layer 1
10
304.526851
20
1025.320687
11
298.456603
21
1023.496365
0
LINE
8
Layer 1
10
298.456603
20
1023.496365
11
292.447757
21
1021.465987
0
LINE
8
Layer 1
10
292.447757
20
1021.465987
11
285.516572
21
1018.825984
0
LINE
8
Layer 1
10
285.516572
20
1018.825984
11
278.699592
21
1015.893573
0
LINE
8
Layer 1
10
278.699592
20
1015.893573
11
272.013726
21
1012.665045
0
LINE
8
Layer 1
10
272.013726
20
1012.665045
11
265.475882
21
1009.136689
0
LINE
8
Layer 1
10
265.475882
20
1009.136689
11
265.412612
21
1009.101499
0
LINE
8
Layer 1
10
265.412612
20
1009.101499
11
262.663007
21
1007.324528
0
LINE
8
Layer 1
10
262.663007
20
1007.324528
11
260.048620
21
1005.422337
0
LINE
8
Layer 1
10
260.048620
20
1005.422337
11
255.132929
21
1001.405797
0
LINE
8
Layer 1
10
255.132929
20
1001.405797
11
255.118889
21
1001.393467
0
LINE
8
Layer 1
10
255.118889
20
1001.393467
11
248.846013
21
995.612931
0
LINE
8
Layer 1
10
248.846013
20
995.612931
11
242.931980
21
989.456164
0
LINE
8
Layer 1
10
242.931980
20
989.456164
11
242.917940
21
989.440324
0
LINE
8
Layer 1
10
242.917940
20
989.440324
11
239.069166
21
984.904371
0
LINE
8
Layer 1
10
239.069166
20
984.904371
11
237.241214
21
982.469707
0
LINE
8
Layer 1
10
237.241214
20
982.469707
11
235.538642
21
979.888372
0
LINE
8
Layer 1
10
235.538642
20
979.888372
11
235.519292
21
979.854982
0
LINE
8
Layer 1
10
235.519292
20
979.854982
11
235.394489
21
979.645804
0
LINE
8
Layer 1
10
235.394489
20
979.645804
11
235.380449
21
979.619434
0
LINE
8
Layer 1
10
235.380449
20
979.619434
11
235.347059
21
979.563184
0
LINE
8
Layer 1
10
235.347059
20
979.563184
11
234.969872
21
978.454953
0
LINE
8
Layer 1
10
234.969872
20
978.454953
11
235.045546
21
977.286741
0
LINE
8
Layer 1
10
235.045546
20
977.286741
11
235.562557
21
976.236434
0
LINE
8
Layer 1
10
235.562557
20
976.236434
11
236.442179
21
975.463963
0
LINE
8
Layer 1
10
236.442179
20
975.463963
11
237.550410
21
975.086776
0
LINE
8
Layer 1
10
237.550410
20
975.086776
11
238.718622
21
975.162450
0
LINE
8
Layer 1
10
238.718622
20
975.162450
11
239.768929
21
975.679461
0
LINE
8
Layer 1
10
239.768929
20
975.679461
11
240.541400
21
976.559083
0
LINE
8
Layer 1
10
240.541400
20
976.559083
11
240.565970
21
976.603003
0
LINE
8
Layer 1
10
240.565970
20
976.603003
11
240.660893
21
976.764724
0
LINE
8
Layer 1
10
240.660893
20
976.764724
11
240.662693
21
976.768324
0
LINE
8
Layer 1
10
240.662693
20
976.768324
11
242.137294
21
978.999756
0
LINE
8
Layer 1
10
242.137294
20
978.999756
11
243.772933
21
981.175351
0
LINE
8
Layer 1
10
243.772933
20
981.175351
11
247.386332
21
985.436098
0
LINE
8
Layer 1
10
247.386332
20
985.436098
11
247.391732
21
985.441498
0
LINE
8
Layer 1
10
247.391732
20
985.441498
11
247.400732
21
985.452028
0
LINE
8
Layer 1
10
247.400732
20
985.452028
11
253.050849
21
991.331788
0
LINE
8
Layer 1
10
253.050849
20
991.331788
11
259.053275
21
996.861985
0
LINE
8
Layer 1
10
259.053275
20
996.861985
11
263.691444
21
1000.649694
0
LINE
8
Layer 1
10
263.691444
20
1000.649694
11
266.063125
21
1002.376630
0
LINE
8
Layer 1
10
266.063125
20
1002.376630
11
268.492727
21
1003.949485
0
LINE
8
Layer 1
10
268.492727
20
1003.949485
11
274.778077
21
1007.339258
0
LINE
8
Layer 1
10
274.778077
20
1007.339258
11
281.213115
21
1010.445399
0
LINE
8
Layer 1
10
281.213115
20
1010.445399
11
287.781318
21
1013.270332
0
LINE
8
Layer 1
10
287.781318
20
1013.270332
11
294.466160
21
1015.816480
0
LINE
8
Layer 1
10
294.466160
20
1015.816480
11
300.279886
21
1017.780802
0
LINE
8
Layer 1
10
300.279886
20
1017.780802
11
306.158169
21
1019.547179
0
LINE
8
Layer 1
10
306.158169
20
1019.547179
11
312.093939
21
1021.119071
0
LINE
8
Layer 1
10
312.093939
20
1021.119071
11
318.080127
21
1022.499936
0
LINE
8
Layer 1
10
318.080127
20
1022.499936
11
324.109662
21
1023.693233
0
LINE
8
Layer 1
10
324.109662
20
1023.693233
11
330.175474
21
1024.702420
0
LINE
8
Layer 1
10
330.175474
20
1024.702420
11
336.270494
21
1025.530957
0
LINE
8
Layer 1
10
336.270494
20
1025.530957
11
342.387650
21
1026.182302
0
LINE
8
Layer 1
10
342.387650
20
1026.182302
11
343.509946
21
1026.514970
0
LINE
8
Layer 1
10
343.509946
20
1026.514970
11
344.419500
21
1027.251805
0
LINE
8
Layer 1
10
344.419500
20
1027.251805
11
344.977838
21
1028.280627
0
LINE
8
Layer 1
10
344.977838
20
1028.280627
11
345.099953
21
1029.444802
0
LINE
8
Layer 1
10
345.099953
20
1029.444802
11
344.767285
21
1030.567098
0
LINE
8
Layer 1
10
344.767285
20
1030.567098
11
344.030450
21
1031.476652
0
LINE
8
Layer 1
10
344.030450
20
1031.476652
11
343.001628
21
1032.034990
0
LINE
8
Layer 1
10
343.001628
20
1032.034990
11
341.837453
21
1032.157105
0
LINE
8
Layer 1
10
341.837453
20
1032.157105
11
341.837012
21
1032.156997
0
LINE
8
Layer 1
10
297.719435
20
997.399771
11
295.573166
21
997.489337
0
LINE
8
Layer 1
10
295.573166
20
997.489337
11
293.510317
21
997.385814
0
LINE
8
Layer 1
10
293.510317
20
997.385814
11
289.656344
21
996.868915
0
LINE
8
Layer 1
10
289.656344
20
996.868915
11
289.621154
21
996.863515
0
LINE
8
Layer 1
10
289.621154
20
996.863515
11
283.473953
21
995.549922
0
LINE
8
Layer 1
10
283.473953
20
995.549922
11
277.486976
21
993.866443
0
LINE
8
Layer 1
10
277.486976
20
993.866443
11
277.477976
21
993.862843
0
LINE
8
Layer 1
10
277.477976
20
993.862843
11
270.223272
21
991.377061
0
LINE
8
Layer 1
10
270.223272
20
991.377061
11
263.113139
21
988.408357
0
LINE
8
Layer 1
10
263.113139
20
988.408357
11
263.095589
21
988.401157
0
LINE
8
Layer 1
10
263.095589
20
988.401157
11
258.395840
21
986.022145
0
LINE
8
Layer 1
10
258.395840
20
986.022145
11
256.071316
21
984.634355
0
LINE
8
Layer 1
10
256.071316
20
984.634355
11
253.805555
21
983.062681
0
LINE
8
Layer 1
10
253.805555
20
983.062681
11
252.279360
21
981.775737
0
LINE
8
Layer 1
10
252.279360
20
981.775737
11
251.175863
21
980.684368
0
LINE
8
Layer 1
10
251.175863
20
980.684368
11
251.161823
21
980.672038
0
LINE
8
Layer 1
10
251.161823
20
980.672038
11
247.171985
21
977.083156
0
LINE
8
Layer 1
10
247.171985
20
977.083156
11
242.958107
21
973.748014
0
LINE
8
Layer 1
10
242.958107
20
973.748014
11
242.161910
21
972.862535
0
LINE
8
Layer 1
10
242.161910
20
972.862535
11
241.780128
21
971.778154
0
LINE
8
Layer 1
10
241.780128
20
971.778154
11
241.832648
21
970.629727
0
LINE
8
Layer 1
10
241.832648
20
970.629727
11
242.339357
21
969.552115
0
LINE
8
Layer 1
10
242.339357
20
969.552115
11
243.207142
21
968.766218
0
LINE
8
Layer 1
10
243.207142
20
968.766218
11
244.309650
21
968.372314
0
LINE
8
Layer 1
10
244.309650
20
968.372314
11
245.478972
21
968.430393
0
LINE
8
Layer 1
10
245.478972
20
968.430393
11
246.537020
21
968.931610
0
LINE
8
Layer 1
10
246.537020
20
968.931610
11
251.041154
21
972.497127
0
LINE
8
Layer 1
10
251.041154
20
972.497127
11
255.317294
21
976.344307
0
LINE
8
Layer 1
10
255.317294
20
976.344307
11
257.321198
21
978.204076
0
LINE
8
Layer 1
10
257.321198
20
978.204076
11
257.382758
21
978.249796
0
LINE
8
Layer 1
10
257.382758
20
978.249796
11
259.275068
21
979.562103
0
LINE
8
Layer 1
10
259.275068
20
979.562103
11
261.295972
21
980.766952
0
LINE
8
Layer 1
10
261.295972
20
980.766952
11
265.628657
21
982.960729
0
LINE
8
Layer 1
10
265.628657
20
982.960729
11
272.337222
21
985.761474
0
LINE
8
Layer 1
10
272.337222
20
985.761474
11
279.249941
21
988.130455
0
LINE
8
Layer 1
10
279.249941
20
988.130455
11
284.925267
21
989.726614
0
LINE
8
Layer 1
10
284.925267
20
989.726614
11
290.622989
21
990.946474
0
LINE
8
Layer 1
10
290.622989
20
990.946474
11
293.558260
21
991.325372
0
LINE
8
Layer 1
10
293.558260
20
991.325372
11
296.274359
21
991.419325
0
LINE
8
Layer 1
10
296.274359
20
991.419325
11
294.481667
21
989.673807
0
LINE
8
Layer 1
10
294.481667
20
989.673807
11
292.412441
21
987.966979
0
LINE
8
Layer 1
10
292.412441
20
987.966979
11
292.408841
21
987.965179
0
LINE
8
Layer 1
10
292.408841
20
987.965179
11
287.778764
21
984.651703
0
LINE
8
Layer 1
10
287.778764
20
984.651703
11
287.562548
21
984.489982
0
LINE
8
Layer 1
10
287.562548
20
984.489982
11
279.447871
21
977.606017
0
LINE
8
Layer 1
10
279.447871
20
977.606017
11
271.618005
21
970.402209
0
LINE
8
Layer 1
10
271.618005
20
970.402209
11
264.081847
21
962.893313
0
LINE
8
Layer 1
10
264.081847
20
962.893313
11
256.848293
21
955.094083
0
LINE
8
Layer 1
10
256.848293
20
955.094083
11
256.254456
21
954.085106
0
LINE
8
Layer 1
10
256.254456
20
954.085106
11
256.092026
21
952.925670
0
LINE
8
Layer 1
10
256.092026
20
952.925670
11
256.385742
21
951.792353
0
LINE
8
Layer 1
10
256.385742
20
951.792353
11
257.090870
21
950.857756
0
LINE
8
Layer 1
10
257.090870
20
950.857756
11
258.099847
21
950.263919
0
LINE
8
Layer 1
10
258.099847
20
950.263919
11
259.259283
21
950.101489
0
LINE
8
Layer 1
10
259.259283
20
950.101489
11
260.392600
21
950.395205
0
LINE
8
Layer 1
10
260.392600
20
950.395205
11
261.327197
21
951.100333
0
LINE
8
Layer 1
10
261.327197
20
951.100333
11
268.393129
21
958.718858
0
LINE
8
Layer 1
10
268.393129
20
958.718858
11
275.752957
21
966.052408
0
LINE
8
Layer 1
10
275.752957
20
966.052408
11
283.397416
21
973.086630
0
LINE
8
Layer 1
10
283.397416
20
973.086630
11
291.317240
21
979.807174
0
LINE
8
Layer 1
10
291.317240
20
979.807174
11
296.087942
21
983.226112
0
LINE
8
Layer 1
10
296.087942
20
983.226112
11
296.101982
21
983.236642
0
LINE
8
Layer 1
10
296.101982
20
983.236642
11
298.554501
21
985.243657
0
LINE
8
Layer 1
10
298.554501
20
985.243657
11
300.951785
21
987.604810
0
LINE
8
Layer 1
10
300.951785
20
987.604810
11
300.993995
21
987.654040
0
LINE
8
Layer 1
10
300.993995
20
987.654040
11
302.140264
21
989.130982
0
LINE
8
Layer 1
10
302.140264
20
989.130982
11
302.695889
21
990.142027
0
LINE
8
Layer 1
10
302.695889
20
990.142027
11
303.124466
21
991.373569
0
LINE
8
Layer 1
10
303.124466
20
991.373569
11
303.274491
21
992.672576
0
LINE
8
Layer 1
10
303.274491
20
992.672576
11
303.053652
21
993.947827
0
LINE
8
Layer 1
10
303.053652
20
993.947827
11
302.451617
21
995.118076
0
LINE
8
Layer 1
10
302.451617
20
995.118076
11
301.458053
21
996.102079
0
LINE
8
Layer 1
10
301.458053
20
996.102079
11
300.426763
21
996.719816
0
LINE
8
Layer 1
10
300.426763
20
996.719816
11
299.443275
21
997.088945
0
LINE
8
Layer 1
10
299.443275
20
997.088945
11
297.805322
21
997.390564
0
LINE
8
Layer 1
10
297.805322
20
997.390564
11
297.719192
21
997.399564
0
LINE
8
Layer 1
10
297.719192
20
997.399564
11
297.719435
21
997.399771
0
LINE
8
Layer 1
10
518.936618
20
996.051526
11
518.188188
21
995.495733
0
LINE
8
Layer 1
10
518.188188
20
995.495733
11
517.656222
21
994.755580
0
LINE
8
Layer 1
10
517.656222
20
994.755580
11
517.370704
21
993.889962
0
LINE
8
Layer 1
10
517.370704
20
993.889962
11
517.361618
21
992.957776
0
LINE
8
Layer 1
10
517.361618
20
992.957776
11
517.587615
21
990.788371
0
LINE
8
Layer 1
10
517.587615
20
990.788371
11
517.648495
21
988.574585
0
LINE
8
Layer 1
10
517.648495
20
988.574585
11
517.358018
21
984.056218
0
LINE
8
Layer 1
10
517.358018
20
984.056218
11
517.358018
21
984.054418
0
LINE
8
Layer 1
10
517.358018
20
984.054418
11
516.826614
21
980.573707
0
LINE
8
Layer 1
10
516.826614
20
980.573707
11
516.074777
21
977.120388
0
LINE
8
Layer 1
10
516.074777
20
977.120388
11
515.119050
21
973.703712
0
LINE
8
Layer 1
10
515.119050
20
973.703712
11
513.975980
21
970.332928
0
LINE
8
Layer 1
10
513.975980
20
970.332928
11
512.835694
21
967.468432
0
LINE
8
Layer 1
10
512.835694
20
967.468432
11
511.563365
21
964.680791
0
LINE
8
Layer 1
10
511.563365
20
964.680791
11
510.146904
21
961.987579
0
LINE
8
Layer 1
10
510.146904
20
961.987579
11
508.574225
21
959.406370
0
LINE
8
Layer 1
10
508.574225
20
959.406370
11
508.572425
21
959.404570
0
LINE
8
Layer 1
10
508.572425
20
959.404570
11
506.475136
21
956.561469
0
LINE
8
Layer 1
10
506.475136
20
956.561469
11
504.135704
21
954.148714
0
LINE
8
Layer 1
10
504.135704
20
954.148714
11
502.523051
21
952.976973
0
LINE
8
Layer 1
10
502.523051
20
952.976973
11
500.947031
21
952.278406
0
LINE
8
Layer 1
10
500.947031
20
952.278406
11
500.936501
21
952.274806
0
LINE
8
Layer 1
10
500.936501
20
952.274806
11
499.914636
21
952.141850
0
LINE
8
Layer 1
10
499.914636
20
952.141850
11
498.985328
21
952.297666
0
LINE
8
Layer 1
10
498.985328
20
952.297666
11
498.965978
21
952.304866
0
LINE
8
Layer 1
10
498.965978
20
952.304866
11
497.838321
21
952.929355
0
LINE
8
Layer 1
10
497.838321
20
952.929355
11
496.708949
21
954.002914
0
LINE
8
Layer 1
10
496.708949
20
954.002914
11
496.707149
21
954.004714
0
LINE
8
Layer 1
10
496.707149
20
954.004714
11
495.731567
21
955.319560
0
LINE
8
Layer 1
10
495.731567
20
955.319560
11
494.899914
21
956.171872
0
LINE
8
Layer 1
10
494.899914
20
956.171872
11
493.842727
21
956.623609
0
LINE
8
Layer 1
10
493.842727
20
956.623609
11
492.693290
21
956.646126
0
LINE
8
Layer 1
10
492.693290
20
956.646126
11
491.584889
21
956.210776
0
LINE
8
Layer 1
10
491.584889
20
956.210776
11
490.744475
21
955.395767
0
LINE
8
Layer 1
10
490.744475
20
955.395767
11
490.279981
21
954.321160
0
LINE
8
Layer 1
10
490.279981
20
954.321160
11
490.262142
21
953.150597
0
LINE
8
Layer 1
10
490.262142
20
953.150597
11
490.693673
21
952.062334
0
LINE
8
Layer 1
10
490.693673
20
952.062334
11
492.157937
21
950.093584
0
LINE
8
Layer 1
10
492.157937
20
950.093584
11
493.124757
21
949.069390
0
LINE
8
Layer 1
10
493.124757
20
949.069390
11
494.246466
21
948.114582
0
LINE
8
Layer 1
10
494.246466
20
948.114582
11
495.536361
21
947.284870
0
LINE
8
Layer 1
10
495.536361
20
947.284870
11
497.007740
21
946.635964
0
LINE
8
Layer 1
10
497.007740
20
946.635964
11
498.407469
21
946.271904
0
LINE
8
Layer 1
10
498.407469
20
946.271904
11
499.815129
21
946.139400
0
LINE
8
Layer 1
10
499.815129
20
946.139400
11
501.206888
21
946.221340
0
LINE
8
Layer 1
10
501.206888
20
946.221340
11
502.558913
21
946.500613
0
LINE
8
Layer 1
10
502.558913
20
946.500613
11
502.562513
21
946.500613
0
LINE
8
Layer 1
10
502.562513
20
946.500613
11
504.148302
21
947.068537
0
LINE
8
Layer 1
10
504.148302
20
947.068537
11
505.581988
21
947.808184
0
LINE
8
Layer 1
10
505.581988
20
947.808184
11
508.036340
21
949.590853
0
LINE
8
Layer 1
10
508.036340
20
949.590853
11
508.048670
21
949.601383
0
LINE
8
Layer 1
10
508.048670
20
949.601383
11
509.649284
21
951.115374
0
LINE
8
Layer 1
10
509.649284
20
951.115374
11
511.090118
21
952.723199
0
LINE
8
Layer 1
10
511.090118
20
952.723199
11
513.578747
21
956.096494
0
LINE
8
Layer 1
10
513.578747
20
956.096494
11
513.587747
21
956.110534
0
LINE
8
Layer 1
10
513.587747
20
956.110534
11
515.370223
21
959.034755
0
LINE
8
Layer 1
10
515.370223
20
959.034755
11
516.954717
21
962.046870
0
LINE
8
Layer 1
10
516.954717
20
962.046870
11
518.359535
21
965.126119
0
LINE
8
Layer 1
10
518.359535
20
965.126119
11
519.602987
21
968.251741
0
LINE
8
Layer 1
10
519.602987
20
968.251741
11
519.606587
21
968.260741
0
LINE
8
Layer 1
10
519.606587
20
968.260741
11
520.851301
21
971.931173
0
LINE
8
Layer 1
10
520.851301
20
971.931173
11
521.898647
21
975.676074
0
LINE
8
Layer 1
10
521.898647
20
975.676074
11
522.727650
21
979.487332
0
LINE
8
Layer 1
10
522.727650
20
979.487332
11
523.317332
21
983.356837
0
LINE
8
Layer 1
10
523.317332
20
983.356837
11
523.319132
21
983.369167
0
LINE
8
Layer 1
10
523.319132
20
983.369167
11
523.352522
21
983.903542
0
LINE
8
Layer 1
10
523.352522
20
983.903542
11
523.523036
21
983.566042
0
LINE
8
Layer 1
10
523.523036
20
983.566042
11
523.526636
21
983.555512
0
LINE
8
Layer 1
10
523.526636
20
983.555512
11
524.181392
21
981.519578
0
LINE
8
Layer 1
10
524.181392
20
981.519578
11
524.630410
21
979.397604
0
LINE
8
Layer 1
10
524.630410
20
979.397604
11
524.886573
21
977.212691
0
LINE
8
Layer 1
10
524.886573
20
977.212691
11
524.962766
21
974.987935
0
LINE
8
Layer 1
10
524.962766
20
974.987935
11
524.825448
21
972.028446
0
LINE
8
Layer 1
10
524.825448
20
972.028446
11
524.464290
21
969.045396
0
LINE
8
Layer 1
10
524.464290
20
969.045396
11
523.918630
21
966.045334
0
LINE
8
Layer 1
10
523.918630
20
966.045334
11
523.227809
21
963.034810
0
LINE
8
Layer 1
10
523.227809
20
963.034810
11
521.502624
21
956.922820
0
LINE
8
Layer 1
10
521.502624
20
956.922820
11
519.530249
21
950.794396
0
LINE
8
Layer 1
10
519.530249
20
950.794396
11
517.489321
21
944.595603
0
LINE
8
Layer 1
10
517.489321
20
944.595603
11
515.558477
21
938.272507
0
LINE
8
Layer 1
10
515.558477
20
938.272507
11
515.464619
21
937.105580
0
LINE
8
Layer 1
10
515.464619
20
937.105580
11
515.824527
21
935.991581
0
LINE
8
Layer 1
10
515.824527
20
935.991581
11
516.583394
21
935.100150
0
LINE
8
Layer 1
10
516.583394
20
935.100150
11
517.625660
21
934.567036
0
LINE
8
Layer 1
10
517.625660
20
934.567036
11
518.792904
21
934.473400
0
LINE
8
Layer 1
10
518.792904
20
934.473400
11
519.907075
21
934.833748
0
LINE
8
Layer 1
10
519.907075
20
934.833748
11
520.798418
21
935.593177
0
LINE
8
Layer 1
10
520.798418
20
935.593177
11
521.331131
21
936.635983
0
LINE
8
Layer 1
10
521.331131
20
936.635983
11
523.205250
21
942.752522
0
LINE
8
Layer 1
10
523.205250
20
942.752522
11
525.237739
21
948.911597
0
LINE
8
Layer 1
10
525.237739
20
948.911597
11
527.246123
21
955.168265
0
LINE
8
Layer 1
10
527.246123
20
955.168265
11
529.047929
21
961.577584
0
LINE
8
Layer 1
10
529.047929
20
961.577584
11
529.049729
21
961.586584
0
LINE
8
Layer 1
10
529.049729
20
961.586584
11
529.793958
21
964.824642
0
LINE
8
Layer 1
10
529.793958
20
964.824642
11
530.397054
21
968.136182
0
LINE
8
Layer 1
10
530.397054
20
968.136182
11
530.804612
21
971.516722
0
LINE
8
Layer 1
10
530.804612
20
971.516722
11
530.962229
21
974.961781
0
LINE
8
Layer 1
10
530.962229
20
974.961781
11
530.870824
21
977.654093
0
LINE
8
Layer 1
10
530.870824
20
977.654093
11
530.554653
21
980.358190
0
LINE
8
Layer 1
10
530.554653
20
980.358190
11
529.984799
21
983.047383
0
LINE
8
Layer 1
10
529.984799
20
983.047383
11
529.132349
21
985.694983
0
LINE
8
Layer 1
10
529.132349
20
985.694983
11
529.130549
21
985.698583
0
LINE
8
Layer 1
10
529.130549
20
985.698583
11
528.090497
21
988.056302
0
LINE
8
Layer 1
10
528.090497
20
988.056302
11
526.821128
21
990.283319
0
LINE
8
Layer 1
10
526.821128
20
990.283319
11
525.343286
21
992.366894
0
LINE
8
Layer 1
10
525.343286
20
992.366894
11
523.677818
21
994.294285
0
LINE
8
Layer 1
10
523.677818
20
994.294285
11
522.378794
21
995.586280
0
LINE
8
Layer 1
10
522.378794
20
995.586280
11
521.606834
21
996.109786
0
LINE
8
Layer 1
10
521.606834
20
996.109786
11
520.732150
21
996.367842
0
LINE
8
Layer 1
10
520.732150
20
996.367842
11
519.820339
21
996.351570
0
LINE
8
Layer 1
10
519.820339
20
996.351570
11
518.936996
21
996.052093
0
LINE
8
Layer 1
10
518.936996
20
996.052093
11
518.936618
21
996.051526
0
LINE
8
Layer 1
10
590.444435
20
977.334343
11
588.525268
21
977.456811
0
LINE
8
Layer 1
10
588.525268
20
977.456811
11
586.640447
21
977.318547
0
LINE
8
Layer 1
10
586.640447
20
977.318547
11
584.811476
21
976.946481
0
LINE
8
Layer 1
10
584.811476
20
976.946481
11
583.059863
21
976.367545
0
LINE
8
Layer 1
10
583.059863
20
976.367545
11
581.064244
21
975.450979
0
LINE
8
Layer 1
10
581.064244
20
975.450979
11
579.220425
21
974.363707
0
LINE
8
Layer 1
10
579.220425
20
974.363707
11
577.515221
21
973.153355
0
LINE
8
Layer 1
10
577.515221
20
973.153355
11
575.935445
21
971.867545
0
LINE
8
Layer 1
10
575.935445
20
971.867545
11
575.926445
21
971.860345
0
LINE
8
Layer 1
10
575.926445
20
971.860345
11
573.827471
21
969.920978
0
LINE
8
Layer 1
10
573.827471
20
969.920978
11
571.867621
21
967.893394
0
LINE
8
Layer 1
10
571.867621
20
967.893394
11
568.269416
21
963.695302
0
LINE
8
Layer 1
10
568.269416
20
963.695302
11
568.260416
21
963.682972
0
LINE
8
Layer 1
10
568.260416
20
963.682972
11
564.441047
21
958.727499
0
LINE
8
Layer 1
10
564.441047
20
958.727499
11
560.790682
21
953.712818
0
LINE
8
Layer 1
10
560.790682
20
953.712818
11
553.637171
21
943.775746
0
LINE
8
Layer 1
10
553.637171
20
943.775746
11
553.635371
21
943.775746
0
LINE
8
Layer 1
10
553.635371
20
943.775746
11
548.103331
21
936.646214
0
LINE
8
Layer 1
10
548.103331
20
936.646214
11
545.198911
21
933.260483
0
LINE
8
Layer 1
10
545.198911
20
933.260483
11
542.158616
21
930.041953
0
LINE
8
Layer 1
10
542.158616
20
930.041953
11
539.868844
21
927.864742
0
LINE
8
Layer 1
10
539.868844
20
927.864742
11
537.489347
21
925.839614
0
LINE
8
Layer 1
10
537.489347
20
925.839614
11
535.010793
21
924.002717
0
LINE
8
Layer 1
10
535.010793
20
924.002717
11
532.423847
21
922.390198
0
LINE
8
Layer 1
10
532.423847
20
922.390198
11
532.422047
21
922.388398
0
LINE
8
Layer 1
10
532.422047
20
922.388398
11
530.275069
21
921.294749
0
LINE
8
Layer 1
10
530.275069
20
921.294749
11
528.060251
21
920.403463
0
LINE
8
Layer 1
10
528.060251
20
920.403463
11
525.795665
21
919.737358
0
LINE
8
Layer 1
10
525.795665
20
919.737358
11
523.499384
21
919.319254
0
LINE
8
Layer 1
10
523.499384
20
919.319254
11
523.490384
21
919.317454
0
LINE
8
Layer 1
10
523.490384
20
919.317454
11
521.285178
21
919.186178
0
LINE
8
Layer 1
10
521.285178
20
919.186178
11
519.064211
21
919.287574
0
LINE
8
Layer 1
10
519.064211
20
919.287574
11
518.894604
21
920.953095
0
LINE
8
Layer 1
10
518.894604
20
920.953095
11
518.825153
21
922.641478
0
LINE
8
Layer 1
10
518.825153
20
922.641478
11
518.620941
21
923.815097
0
LINE
8
Layer 1
10
518.620941
20
923.815097
11
518.003966
21
924.785627
0
LINE
8
Layer 1
10
518.003966
20
924.785627
11
517.068092
21
925.454004
0
LINE
8
Layer 1
10
517.068092
20
925.454004
11
515.907182
21
925.721161
0
LINE
8
Layer 1
10
515.907182
20
925.721161
11
514.733562
21
925.516952
0
LINE
8
Layer 1
10
514.733562
20
925.516952
11
513.763030
21
924.899980
0
LINE
8
Layer 1
10
513.763030
20
924.899980
11
513.094651
21
923.964108
0
LINE
8
Layer 1
10
513.094651
20
923.964108
11
512.827490
21
922.803199
0
LINE
8
Layer 1
10
512.827490
20
922.803199
11
512.893012
21
919.435266
0
LINE
8
Layer 1
10
512.893012
20
919.435266
11
513.317918
21
916.039132
0
LINE
8
Layer 1
10
513.317918
20
916.039132
11
513.616418
21
915.182129
0
LINE
8
Layer 1
10
513.616418
20
915.182129
11
514.143971
21
914.467466
0
LINE
8
Layer 1
10
514.143971
20
914.467466
11
514.857472
21
913.938343
0
LINE
8
Layer 1
10
514.857472
20
913.938343
11
515.713817
21
913.637959
0
LINE
8
Layer 1
10
515.713817
20
913.637959
11
517.825337
21
913.322764
0
LINE
8
Layer 1
10
517.825337
20
913.322764
11
519.958861
21
913.168827
0
LINE
8
Layer 1
10
519.958861
20
913.168827
11
522.102968
21
913.181342
0
LINE
8
Layer 1
10
522.102968
20
913.181342
11
524.246240
21
913.365502
0
LINE
8
Layer 1
10
524.246240
20
913.365502
11
527.192078
21
913.900688
0
LINE
8
Layer 1
10
527.192078
20
913.900688
11
530.036680
21
914.736392
0
LINE
8
Layer 1
10
530.036680
20
914.736392
11
532.766043
21
915.835429
0
LINE
8
Layer 1
10
532.766043
20
915.835429
11
535.366163
21
917.160613
0
LINE
8
Layer 1
10
535.366163
20
917.160613
11
538.396190
21
919.046988
0
LINE
8
Layer 1
10
538.396190
20
919.046988
11
541.233118
21
921.147484
0
LINE
8
Layer 1
10
541.233118
20
921.147484
11
543.895016
21
923.413579
0
LINE
8
Layer 1
10
543.895016
20
923.413579
11
546.399956
21
925.796752
0
LINE
8
Layer 1
10
546.399956
20
925.796752
11
546.403556
21
925.802152
0
LINE
8
Layer 1
10
546.403556
20
925.802152
11
549.664936
21
929.252651
0
LINE
8
Layer 1
10
549.664936
20
929.252651
11
552.734912
21
932.829256
0
LINE
8
Layer 1
10
552.734912
20
932.829256
11
558.453368
21
940.198633
0
LINE
8
Layer 1
10
558.453368
20
940.198633
11
558.453368
21
940.200433
0
LINE
8
Layer 1
10
558.453368
20
940.200433
11
565.667095
21
950.211832
0
LINE
8
Layer 1
10
565.667095
20
950.211832
11
569.249033
21
955.134878
0
LINE
8
Layer 1
10
569.249033
20
955.134878
11
572.930705
21
959.916058
0
LINE
8
Layer 1
10
572.930705
20
959.916058
11
576.278725
21
963.823183
0
LINE
8
Layer 1
10
576.278725
20
963.823183
11
578.026367
21
965.633987
0
LINE
8
Layer 1
10
578.026367
20
965.633987
11
579.845945
21
967.318207
0
LINE
8
Layer 1
10
579.845945
20
967.318207
11
579.853145
21
967.323607
0
LINE
8
Layer 1
10
579.853145
20
967.323607
11
579.854945
21
967.325407
0
LINE
8
Layer 1
10
579.854945
20
967.325407
11
582.503484
21
969.337538
0
LINE
8
Layer 1
10
582.503484
20
969.337538
11
583.866813
21
970.143743
0
LINE
8
Layer 1
10
583.866813
20
970.143743
11
585.256709
21
970.784782
0
LINE
8
Layer 1
10
585.256709
20
970.784782
11
585.262109
21
970.786582
0
LINE
8
Layer 1
10
585.262109
20
970.786582
11
587.468120
21
971.373122
0
LINE
8
Layer 1
10
587.468120
20
971.373122
11
588.571191
21
971.456058
0
LINE
8
Layer 1
10
588.571191
20
971.456058
11
589.644344
21
971.389510
0
LINE
8
Layer 1
10
589.644344
20
971.389510
11
589.663694
21
971.387710
0
LINE
8
Layer 1
10
589.663694
20
971.387710
11
590.841992
21
971.139766
0
LINE
8
Layer 1
10
590.841992
20
971.139766
11
592.022737
21
970.714762
0
LINE
8
Layer 1
10
592.022737
20
970.714762
11
594.330689
21
969.415441
0
LINE
8
Layer 1
10
594.330689
20
969.415441
11
600.073463
21
963.771109
0
LINE
8
Layer 1
10
600.073463
20
963.771109
11
601.053083
21
963.093393
0
LINE
8
Layer 1
10
601.053083
20
963.093393
11
602.177508
21
962.852268
0
LINE
8
Layer 1
10
602.177508
20
962.852268
11
603.310311
21
963.050336
0
LINE
8
Layer 1
10
603.310311
20
963.050336
11
604.315064
21
963.690199
0
LINE
8
Layer 1
10
604.315064
20
963.690199
11
604.993187
21
964.669552
0
LINE
8
Layer 1
10
604.993187
20
964.669552
11
605.234770
21
965.793890
0
LINE
8
Layer 1
10
605.234770
20
965.793890
11
605.037154
21
966.926783
0
LINE
8
Layer 1
10
605.037154
20
966.926783
11
604.397684
21
967.931800
0
LINE
8
Layer 1
10
604.397684
20
967.931800
11
598.236554
21
973.983949
0
LINE
8
Layer 1
10
598.236554
20
973.983949
11
597.932453
21
974.233564
0
LINE
8
Layer 1
10
597.932453
20
974.233564
11
596.272196
21
975.298919
0
LINE
8
Layer 1
10
596.272196
20
975.298919
11
594.466849
21
976.206888
0
LINE
8
Layer 1
10
594.466849
20
976.206888
11
592.522234
21
976.903390
0
LINE
8
Layer 1
10
592.522234
20
976.903390
11
590.444174
21
977.334343
0
LINE
8
Layer 1
10
590.444174
20
977.334343
11
590.444435
21
977.334343
0
LINE
8
Layer 1
10
610.244435
20
956.917348
11
609.489419
21
956.022504
0
LINE
8
Layer 1
10
609.489419
20
956.022504
11
609.134418
21
954.906811
0
LINE
8
Layer 1
10
609.134418
20
954.906811
11
609.233504
21
953.740201
0
LINE
8
Layer 1
10
609.233504
20
953.740201
11
609.771584
21
952.700362
0
LINE
8
Layer 1
10
609.771584
20
952.700362
11
615.289358
21
945.387862
0
LINE
8
Layer 1
10
615.289358
20
945.387862
11
615.287558
21
945.387862
0
LINE
8
Layer 1
10
615.287558
20
945.387862
11
618.446547
21
940.810804
0
LINE
8
Layer 1
10
618.446547
20
940.810804
11
621.466420
21
936.138401
0
LINE
8
Layer 1
10
621.466420
20
936.138401
11
624.350757
21
931.377259
0
LINE
8
Layer 1
10
624.350757
20
931.377259
11
627.103138
21
926.533984
0
LINE
8
Layer 1
10
627.103138
20
926.533984
11
632.226354
21
916.627451
0
LINE
8
Layer 1
10
632.226354
20
916.627451
11
636.864707
21
906.471646
0
LINE
8
Layer 1
10
636.864707
20
906.471646
11
641.503240
21
894.906001
0
LINE
8
Layer 1
10
641.503240
20
894.906001
11
645.623447
21
883.133634
0
LINE
8
Layer 1
10
645.623447
20
883.133634
11
649.267069
21
871.190086
0
LINE
8
Layer 1
10
649.267069
20
871.190086
11
652.475846
21
859.110901
0
LINE
8
Layer 1
10
652.475846
20
859.110901
11
652.481246
21
859.091551
0
LINE
8
Layer 1
10
652.481246
20
859.091551
11
654.071918
21
851.921987
0
LINE
8
Layer 1
10
654.071918
20
851.921987
11
655.321871
21
844.626508
0
LINE
8
Layer 1
10
655.321871
20
844.626508
11
655.731461
21
843.507889
0
LINE
8
Layer 1
10
655.731461
20
843.507889
11
656.511134
21
842.662497
0
LINE
8
Layer 1
10
656.511134
20
842.662497
11
657.550912
21
842.171134
0
LINE
8
Layer 1
10
657.550912
20
842.171134
11
658.740818
21
842.114599
0
LINE
8
Layer 1
10
658.740818
20
842.114599
11
659.859440
21
842.524187
0
LINE
8
Layer 1
10
659.859440
20
842.524187
11
660.704834
21
843.303859
0
LINE
8
Layer 1
10
660.704834
20
843.303859
11
661.196200
21
844.343638
0
LINE
8
Layer 1
10
661.196200
20
844.343638
11
661.252736
21
845.533546
0
LINE
8
Layer 1
10
661.252736
20
845.533546
11
659.963093
21
853.061095
0
LINE
8
Layer 1
10
659.963093
20
853.061095
11
658.296092
21
860.571628
0
LINE
8
Layer 1
10
658.296092
20
860.571628
11
655.034886
21
872.845918
0
LINE
8
Layer 1
10
655.034886
20
872.845918
11
651.324587
21
885.006231
0
LINE
8
Layer 1
10
651.324587
20
885.006231
11
647.120794
21
897.015747
0
LINE
8
Layer 1
10
647.120794
20
897.015747
11
644.819962
21
902.952450
0
LINE
8
Layer 1
10
644.819962
20
902.952450
11
642.379106
21
908.837647
0
LINE
8
Layer 1
10
642.379106
20
908.837647
11
637.624447
21
919.248220
0
LINE
8
Layer 1
10
637.624447
20
919.248220
11
632.360132
21
929.427511
0
LINE
8
Layer 1
10
632.360132
20
929.427511
11
629.526707
21
934.413205
0
LINE
8
Layer 1
10
629.526707
20
934.413205
11
626.553692
21
939.320414
0
LINE
8
Layer 1
10
626.553692
20
939.320414
11
623.437029
21
944.142250
0
LINE
8
Layer 1
10
623.437029
20
944.142250
11
620.172659
21
948.871825
0
LINE
8
Layer 1
10
620.172659
20
948.871825
11
614.459765
21
956.444479
0
LINE
8
Layer 1
10
614.459765
20
956.444479
11
613.547139
21
957.209631
0
LINE
8
Layer 1
10
613.547139
20
957.209631
11
612.450048
21
957.553625
0
LINE
8
Layer 1
10
612.450048
20
957.553625
11
611.304008
21
957.461258
0
LINE
8
Layer 1
10
611.304008
20
957.461258
11
610.244534
21
956.917330
0
LINE
8
Layer 1
10
610.244534
20
956.917330
11
610.244435
21
956.917348
0
LINE
8
Layer 1
10
249.080762
20
944.616175
11
247.966134
21
944.262106
0
LINE
8
Layer 1
10
247.966134
20
944.262106
11
247.071584
21
943.508752
0
LINE
8
Layer 1
10
247.071584
20
943.508752
11
241.732281
21
936.609032
0
LINE
8
Layer 1
10
241.732281
20
936.609032
11
236.607772
21
929.552244
0
LINE
8
Layer 1
10
236.607772
20
929.552244
11
231.697503
21
922.347155
0
LINE
8
Layer 1
10
231.697503
20
922.347155
11
227.000919
21
915.002532
0
LINE
8
Layer 1
10
227.000919
20
915.002532
11
222.517465
21
907.527145
0
LINE
8
Layer 1
10
222.517465
20
907.527145
11
218.246586
21
899.929760
0
LINE
8
Layer 1
10
218.246586
20
899.929760
11
214.187727
21
892.219145
0
LINE
8
Layer 1
10
214.187727
20
892.219145
11
210.340334
21
884.404069
0
LINE
8
Layer 1
10
210.340334
20
884.404069
11
210.342134
21
884.404069
0
LINE
8
Layer 1
10
210.342134
20
884.404069
11
205.043919
21
872.695363
0
LINE
8
Layer 1
10
205.043919
20
872.695363
11
200.192954
21
860.798235
0
LINE
8
Layer 1
10
200.192954
20
860.798235
11
195.782547
21
848.733760
0
LINE
8
Layer 1
10
195.782547
20
848.733760
11
191.806004
21
836.523016
0
LINE
8
Layer 1
10
191.806004
20
836.523016
11
191.687921
21
835.358266
0
LINE
8
Layer 1
10
191.687921
20
835.358266
11
192.024625
21
834.237010
0
LINE
8
Layer 1
10
192.024625
20
834.237010
11
192.764840
21
833.330000
0
LINE
8
Layer 1
10
192.764840
20
833.330000
11
193.795841
21
832.775362
0
LINE
8
Layer 1
10
193.795841
20
832.775362
11
194.960593
21
832.657276
0
LINE
8
Layer 1
10
194.960593
20
832.657276
11
196.081853
21
832.993979
0
LINE
8
Layer 1
10
196.081853
20
832.993979
11
196.988866
21
833.734195
0
LINE
8
Layer 1
10
196.988866
20
833.734195
11
197.543504
21
834.765199
0
LINE
8
Layer 1
10
197.543504
20
834.765199
11
201.454634
21
846.775467
0
LINE
8
Layer 1
10
201.454634
20
846.775467
11
205.790237
21
858.636081
0
LINE
8
Layer 1
10
205.790237
20
858.636081
11
210.556525
21
870.326295
0
LINE
8
Layer 1
10
210.556525
20
870.326295
11
215.759711
21
881.825362
0
LINE
8
Layer 1
10
215.759711
20
881.825362
11
215.759711
21
881.827162
0
LINE
8
Layer 1
10
215.759711
20
881.827162
11
219.535904
21
889.497715
0
LINE
8
Layer 1
10
219.535904
20
889.497715
11
223.518091
21
897.062943
0
LINE
8
Layer 1
10
223.518091
20
897.062943
11
227.706645
21
904.514284
0
LINE
8
Layer 1
10
227.706645
20
904.514284
11
232.101938
21
911.843171
0
LINE
8
Layer 1
10
232.101938
20
911.843171
11
236.704343
21
919.041042
0
LINE
8
Layer 1
10
236.704343
20
919.041042
11
241.514233
21
926.099331
0
LINE
8
Layer 1
10
241.514233
20
926.099331
11
246.531980
21
933.009474
0
LINE
8
Layer 1
10
246.531980
20
933.009474
11
251.757956
21
939.762907
0
LINE
8
Layer 1
10
251.757956
20
939.762907
11
252.296397
21
940.802483
0
LINE
8
Layer 1
10
252.296397
20
940.802483
11
252.395943
21
941.968986
0
LINE
8
Layer 1
10
252.395943
20
941.968986
11
252.041434
21
943.084764
0
LINE
8
Layer 1
10
252.041434
20
943.084764
11
251.286860
21
943.979893
0
LINE
8
Layer 1
10
251.286860
20
943.979893
11
250.247117
21
944.517451
0
LINE
8
Layer 1
10
250.247117
20
944.517451
11
249.080807
21
944.616220
0
LINE
8
Layer 1
10
249.080807
20
944.616220
11
249.080762
21
944.616175
0
LINE
8
Layer 1
10
351.227243
20
913.560901
11
347.620298
21
913.561802
0
LINE
8
Layer 1
10
347.620298
20
913.561802
11
344.018789
21
913.409626
0
LINE
8
Layer 1
10
344.018789
20
913.409626
11
336.858887
21
912.660901
0
LINE
8
Layer 1
10
336.858887
20
912.660901
11
332.591359
21
911.934274
0
LINE
8
Layer 1
10
332.591359
20
911.934274
11
328.364757
21
911.008912
0
LINE
8
Layer 1
10
328.364757
20
911.008912
11
324.186993
21
909.888884
0
LINE
8
Layer 1
10
324.186993
20
909.888884
11
320.065980
21
908.578256
0
LINE
8
Layer 1
10
320.065980
20
908.578256
11
316.009633
21
907.081096
0
LINE
8
Layer 1
10
316.009633
20
907.081096
11
312.025864
21
905.401471
0
LINE
8
Layer 1
10
312.025864
20
905.401471
11
308.122587
21
903.543449
0
LINE
8
Layer 1
10
308.122587
20
903.543449
11
304.307714
21
901.511098
0
LINE
8
Layer 1
10
304.307714
20
901.511098
11
303.405538
21
900.733244
0
LINE
8
Layer 1
10
303.405538
20
900.733244
11
302.889552
21
899.705501
0
LINE
8
Layer 1
10
302.889552
20
899.705501
11
302.796564
21
898.559268
0
LINE
8
Layer 1
10
302.796564
20
898.559268
11
303.163382
21
897.425944
0
LINE
8
Layer 1
10
303.163382
20
897.425944
11
303.924823
21
896.536804
0
LINE
8
Layer 1
10
303.924823
20
896.536804
11
304.968576
21
896.006766
0
LINE
8
Layer 1
10
304.968576
20
896.006766
11
306.135718
21
895.916534
0
LINE
8
Layer 1
10
306.135718
20
895.916534
11
307.248536
21
896.279848
0
LINE
8
Layer 1
10
307.248536
20
896.279848
11
310.823849
21
898.184508
0
LINE
8
Layer 1
10
310.823849
20
898.184508
11
314.481998
21
899.925789
0
LINE
8
Layer 1
10
314.481998
20
899.925789
11
318.215037
21
901.499803
0
LINE
8
Layer 1
10
318.215037
20
901.499803
11
322.015022
21
902.902661
0
LINE
8
Layer 1
10
322.015022
20
902.902661
11
325.874005
21
904.130475
0
LINE
8
Layer 1
10
325.874005
20
904.130475
11
329.784041
21
905.179357
0
LINE
8
Layer 1
10
329.784041
20
905.179357
11
333.737184
21
906.045419
0
LINE
8
Layer 1
10
333.737184
20
906.045419
11
337.725488
21
906.724771
0
LINE
8
Layer 1
10
337.725488
20
906.724771
11
344.397693
21
907.422073
0
LINE
8
Layer 1
10
344.397693
20
907.422073
11
351.096389
21
907.562266
0
LINE
8
Layer 1
10
351.096389
20
907.562266
11
357.768228
21
907.121992
0
LINE
8
Layer 1
10
357.768228
20
907.121992
11
361.077405
21
906.676882
0
LINE
8
Layer 1
10
361.077405
20
906.676882
11
364.359863
21
906.077896
0
LINE
8
Layer 1
10
364.359863
20
906.077896
11
364.361663
21
906.077896
0
LINE
8
Layer 1
10
364.361663
20
906.077896
11
369.709527
21
904.745019
0
LINE
8
Layer 1
10
369.709527
20
904.745019
11
374.925653
21
902.978245
0
LINE
8
Layer 1
10
374.925653
20
902.978245
11
379.967987
21
900.782001
0
LINE
8
Layer 1
10
379.967987
20
900.782001
11
384.794480
21
898.160713
0
LINE
8
Layer 1
10
384.794480
20
898.160713
11
384.796280
21
898.158913
0
LINE
8
Layer 1
10
384.796280
20
898.158913
11
388.269156
21
895.905269
0
LINE
8
Layer 1
10
388.269156
20
895.905269
11
391.586708
21
893.426884
0
LINE
8
Layer 1
10
391.586708
20
893.426884
11
394.279323
21
890.444504
0
LINE
8
Layer 1
10
394.279323
20
890.444504
11
396.683574
21
887.221220
0
LINE
8
Layer 1
10
396.683574
20
887.221220
11
398.777529
21
883.787292
0
LINE
8
Layer 1
10
398.777529
20
883.787292
11
400.539251
21
880.172980
0
LINE
8
Layer 1
10
400.539251
20
880.172980
11
400.539251
21
880.169380
0
LINE
8
Layer 1
10
400.539251
20
880.169380
11
402.081041
21
876.046036
0
LINE
8
Layer 1
10
402.081041
20
876.046036
11
403.219910
21
871.784620
0
LINE
8
Layer 1
10
403.219910
20
871.784620
11
403.686543
21
870.710954
0
LINE
8
Layer 1
10
403.686543
20
870.710954
11
404.528569
21
869.897630
0
LINE
8
Layer 1
10
404.528569
20
869.897630
11
405.617767
21
869.468499
0
LINE
8
Layer 1
10
405.617767
20
869.468499
11
406.788275
21
869.488909
0
LINE
8
Layer 1
10
406.788275
20
869.488909
11
407.861938
21
869.955544
0
LINE
8
Layer 1
10
407.861938
20
869.955544
11
408.675260
21
870.797571
0
LINE
8
Layer 1
10
408.675260
20
870.797571
11
409.104388
21
871.886768
0
LINE
8
Layer 1
10
409.104388
20
871.886768
11
409.083977
21
873.057274
0
LINE
8
Layer 1
10
409.083977
20
873.057274
11
407.797889
21
877.870950
0
LINE
8
Layer 1
10
407.797889
20
877.870950
11
406.049987
21
882.545947
0
LINE
8
Layer 1
10
406.049987
20
882.545947
11
406.049987
21
882.542347
0
LINE
8
Layer 1
10
406.049987
20
882.542347
11
404.024680
21
886.700135
0
LINE
8
Layer 1
10
404.024680
20
886.700135
11
401.617812
21
890.647703
0
LINE
8
Layer 1
10
401.617812
20
890.647703
11
398.849200
21
894.351774
0
LINE
8
Layer 1
10
398.849200
20
894.351774
11
395.738660
21
897.779068
0
LINE
8
Layer 1
10
395.738660
20
897.779068
11
395.494328
21
897.998794
0
LINE
8
Layer 1
10
395.494328
20
897.998794
11
391.781022
21
900.777695
0
LINE
8
Layer 1
10
391.781022
20
900.777695
11
387.888275
21
903.300352
0
LINE
8
Layer 1
10
387.888275
20
903.300352
11
387.886475
21
903.302152
0
LINE
8
Layer 1
10
387.886475
20
903.302152
11
382.596510
21
906.175673
0
LINE
8
Layer 1
10
382.596510
20
906.175673
11
377.085716
21
908.576489
0
LINE
8
Layer 1
10
377.085716
20
908.576489
11
371.397324
21
910.503125
0
LINE
8
Layer 1
10
371.397324
20
910.503125
11
365.574566
21
911.954104
0
LINE
8
Layer 1
10
365.574566
20
911.954104
11
365.576366
21
911.952304
0
LINE
8
Layer 1
10
365.576366
20
911.952304
11
362.014511
21
912.602482
0
LINE
8
Layer 1
10
362.014511
20
912.602482
11
358.431159
21
913.084827
0
LINE
8
Layer 1
10
358.431159
20
913.084827
11
354.833155
21
913.403010
0
LINE
8
Layer 1
10
354.833155
20
913.403010
11
351.227342
21
913.560703
0
LINE
8
Layer 1
10
351.227342
20
913.560703
11
351.227243
21
913.560901
0
LINE
8
Layer 1
10
291.489743
20
892.818718
11
286.557242
21
888.512355
0
LINE
8
Layer 1
10
286.557242
20
888.512355
11
281.960642
21
883.838050
0
LINE
8
Layer 1
10
281.960642
20
883.838050
11
281.951642
21
883.829050
0
LINE
8
Layer 1
10
281.951642
20
883.829050
11
279.567725
21
881.060174
0
LINE
8
Layer 1
10
279.567725
20
881.060174
11
277.402421
21
878.300728
0
LINE
8
Layer 1
10
277.402421
20
878.300728
11
272.404823
21
871.715740
0
LINE
8
Layer 1
10
272.404823
20
871.715740
11
267.571689
21
864.984160
0
LINE
8
Layer 1
10
267.571689
20
864.984160
11
262.953092
21
858.082641
0
LINE
8
Layer 1
10
262.953092
20
858.082641
11
258.599099
21
850.987834
0
LINE
8
Layer 1
10
258.599099
20
850.987834
11
258.597299
21
850.982434
0
LINE
8
Layer 1
10
258.597299
20
850.982434
11
255.770776
21
845.935404
0
LINE
8
Layer 1
10
255.770776
20
845.935404
11
253.128790
21
840.764740
0
LINE
8
Layer 1
10
253.128790
20
840.764740
11
250.715297
21
835.462445
0
LINE
8
Layer 1
10
250.715297
20
835.462445
11
248.574251
21
830.020525
0
LINE
8
Layer 1
10
248.574251
20
830.020525
11
248.572451
21
830.016925
0
LINE
8
Layer 1
10
248.572451
20
830.016925
11
247.089235
21
825.528958
0
LINE
8
Layer 1
10
247.089235
20
825.528958
11
245.859266
21
820.933610
0
LINE
8
Layer 1
10
245.859266
20
820.933610
11
244.937353
21
816.240174
0
LINE
8
Layer 1
10
244.937353
20
816.240174
11
244.378307
21
811.457944
0
LINE
8
Layer 1
10
244.378307
20
811.457944
11
244.236777
21
807.624620
0
LINE
8
Layer 1
10
244.236777
20
807.624620
11
244.400792
21
803.770832
0
LINE
8
Layer 1
10
244.400792
20
803.770832
11
244.900733
21
799.926812
0
LINE
8
Layer 1
10
244.900733
20
799.926812
11
245.766980
21
796.122790
0
LINE
8
Layer 1
10
245.766980
20
796.122790
11
246.095122
21
795.369522
0
LINE
8
Layer 1
10
246.095122
20
795.369522
11
246.604758
21
794.743568
0
LINE
8
Layer 1
10
246.604758
20
794.743568
11
247.262722
21
794.275989
0
LINE
8
Layer 1
10
247.262722
20
794.275989
11
248.035850
21
793.997847
0
LINE
8
Layer 1
10
248.035850
20
793.997847
11
248.855427
21
793.939690
0
LINE
8
Layer 1
10
248.855427
20
793.939690
11
249.646257
21
794.101356
0
LINE
8
Layer 1
10
249.646257
20
794.101356
11
250.365447
21
794.467844
0
LINE
8
Layer 1
10
250.365447
20
794.467844
11
250.970105
21
795.024151
0
LINE
8
Layer 1
10
250.970105
20
795.024151
11
258.588461
21
804.695641
0
LINE
8
Layer 1
10
258.588461
20
804.695641
11
259.099649
21
805.748713
0
LINE
8
Layer 1
10
259.099649
20
805.748713
11
259.168915
21
806.917248
0
LINE
8
Layer 1
10
259.168915
20
806.917248
11
258.785712
21
808.023335
0
LINE
8
Layer 1
10
258.785712
20
808.023335
11
258.008384
21
808.898569
0
LINE
8
Layer 1
10
258.008384
20
808.898569
11
256.955312
21
809.409757
0
LINE
8
Layer 1
10
256.955312
20
809.409757
11
255.786777
21
809.479023
0
LINE
8
Layer 1
10
255.786777
20
809.479023
11
254.680690
21
809.095820
0
LINE
8
Layer 1
10
254.680690
20
809.095820
11
253.805456
21
808.318492
0
LINE
8
Layer 1
10
253.805456
20
808.318492
11
250.425182
21
804.025915
0
LINE
8
Layer 1
10
250.425182
20
804.025915
11
250.247930
21
807.507415
0
LINE
8
Layer 1
10
250.247930
20
807.507415
11
250.360112
21
811.011454
0
LINE
8
Layer 1
10
250.360112
20
811.011454
11
250.361912
21
811.011454
0
LINE
8
Layer 1
10
250.361912
20
811.011454
11
250.864392
21
815.301703
0
LINE
8
Layer 1
10
250.864392
20
815.301703
11
251.702905
21
819.568456
0
LINE
8
Layer 1
10
251.702905
20
819.568456
11
252.834642
21
823.800068
0
LINE
8
Layer 1
10
252.834642
20
823.800068
11
254.216792
21
827.984896
0
LINE
8
Layer 1
10
254.216792
20
827.984896
11
254.218592
21
827.988496
0
LINE
8
Layer 1
10
254.218592
20
827.988496
11
256.236956
21
833.116721
0
LINE
8
Layer 1
10
256.236956
20
833.116721
11
258.528942
21
838.151037
0
LINE
8
Layer 1
10
258.528942
20
838.151037
11
261.055939
21
843.097148
0
LINE
8
Layer 1
10
261.055939
20
843.097148
11
263.779337
21
847.960756
0
LINE
8
Layer 1
10
263.779337
20
847.960756
11
263.781137
21
847.964356
0
LINE
8
Layer 1
10
263.781137
20
847.964356
11
268.002320
21
854.841554
0
LINE
8
Layer 1
10
268.002320
20
854.841554
11
272.501088
21
861.563013
0
LINE
8
Layer 1
10
272.501088
20
861.563013
11
277.230410
21
868.149889
0
LINE
8
Layer 1
10
277.230410
20
868.149889
11
282.143252
21
874.623337
0
LINE
8
Layer 1
10
282.143252
20
874.623337
11
282.145052
21
874.625137
0
LINE
8
Layer 1
10
282.145052
20
874.625137
11
284.246362
21
877.300768
0
LINE
8
Layer 1
10
284.246362
20
877.300768
11
286.367321
21
879.766738
0
LINE
8
Layer 1
10
286.367321
20
879.766738
11
286.392071
21
879.793288
0
LINE
8
Layer 1
10
286.392071
20
879.793288
11
290.666585
21
884.141229
0
LINE
8
Layer 1
10
290.666585
20
884.141229
11
295.265504
21
888.156961
0
LINE
8
Layer 1
10
295.265504
20
888.156961
11
296.024271
21
889.075031
0
LINE
8
Layer 1
10
296.024271
20
889.075031
11
296.360518
21
890.174615
0
LINE
8
Layer 1
10
296.360518
20
890.174615
11
296.260000
21
891.320060
0
LINE
8
Layer 1
10
296.260000
20
891.320060
11
295.708475
21
892.375711
0
LINE
8
Layer 1
10
295.708475
20
892.375711
11
294.790405
21
893.134478
0
LINE
8
Layer 1
10
294.790405
20
893.134478
11
293.690821
21
893.470725
0
LINE
8
Layer 1
10
293.690821
20
893.470725
11
292.545376
21
893.370207
0
LINE
8
Layer 1
10
292.545376
20
893.370207
11
291.489725
21
892.818682
0
LINE
8
Layer 1
10
291.489725
20
892.818682
11
291.489743
21
892.818718
0
LINE
8
Layer 1
10
347.068262
20
885.513247
11
342.671572
21
885.405176
0
LINE
8
Layer 1
10
342.671572
20
885.405176
11
338.300529
21
884.961013
0
LINE
8
Layer 1
10
338.300529
20
884.961013
11
333.978148
21
884.189159
0
LINE
8
Layer 1
10
333.978148
20
884.189159
11
329.727440
21
883.098016
0
LINE
8
Layer 1
10
329.727440
20
883.098016
11
329.722040
21
883.096216
0
LINE
8
Layer 1
10
329.722040
20
883.096216
11
325.854686
21
881.788757
0
LINE
8
Layer 1
10
325.854686
20
881.788757
11
322.078538
21
880.184314
0
LINE
8
Layer 1
10
322.078538
20
880.184314
11
318.431855
21
878.265266
0
LINE
8
Layer 1
10
318.431855
20
878.265266
11
314.952896
21
876.013990
0
LINE
8
Layer 1
10
314.952896
20
876.013990
11
314.951096
21
876.012190
0
LINE
8
Layer 1
10
314.951096
20
876.012190
11
311.491973
21
873.208327
0
LINE
8
Layer 1
10
311.491973
20
873.208327
11
308.364572
21
869.981137
0
LINE
8
Layer 1
10
308.364572
20
869.981137
11
302.932002
21
865.998514
0
LINE
8
Layer 1
10
302.932002
20
865.998514
11
297.757980
21
861.714582
0
LINE
8
Layer 1
10
297.757980
20
861.714582
11
292.833103
21
857.169396
0
LINE
8
Layer 1
10
292.833103
20
857.169396
11
288.147971
21
852.403012
0
LINE
8
Layer 1
10
288.147971
20
852.403012
11
282.157395
21
845.695387
0
LINE
8
Layer 1
10
282.157395
20
845.695387
11
276.484344
21
838.765661
0
LINE
8
Layer 1
10
276.484344
20
838.765661
11
271.047112
21
831.691474
0
LINE
8
Layer 1
10
271.047112
20
831.691474
11
265.763990
21
824.550469
0
LINE
8
Layer 1
10
265.763990
20
824.550469
11
265.762190
21
824.548669
0
LINE
8
Layer 1
10
265.762190
20
824.548669
11
264.016685
21
822.159799
0
LINE
8
Layer 1
10
264.016685
20
822.159799
11
264.014885
21
822.157999
0
LINE
8
Layer 1
10
264.014885
20
822.157999
11
262.687736
21
820.338667
0
LINE
8
Layer 1
10
262.687736
20
820.338667
11
262.195376
21
819.276441
0
LINE
8
Layer 1
10
262.195376
20
819.276441
11
262.147088
21
818.106649
0
LINE
8
Layer 1
10
262.147088
20
818.106649
11
262.550228
21
817.007457
0
LINE
8
Layer 1
10
262.550228
20
817.007457
11
263.343395
21
816.146278
0
LINE
8
Layer 1
10
263.343395
20
816.146278
11
264.405623
21
815.653919
0
LINE
8
Layer 1
10
264.405623
20
815.653919
11
265.575415
21
815.605634
0
LINE
8
Layer 1
10
265.575415
20
815.605634
11
266.674606
21
816.008777
0
LINE
8
Layer 1
10
266.674606
20
816.008777
11
267.535784
21
816.801946
0
LINE
8
Layer 1
10
267.535784
20
816.801946
11
268.862933
21
818.621278
0
LINE
8
Layer 1
10
268.862933
20
818.621278
11
270.604919
21
821.006629
0
LINE
8
Layer 1
10
270.604919
20
821.006629
11
270.606719
21
821.008429
0
LINE
8
Layer 1
10
270.606719
20
821.008429
11
275.846867
21
828.089637
0
LINE
8
Layer 1
10
275.846867
20
828.089637
11
281.194974
21
835.046539
0
LINE
8
Layer 1
10
281.194974
20
835.046539
11
286.727615
21
841.806017
0
LINE
8
Layer 1
10
286.727615
20
841.806017
11
292.521368
21
848.294953
0
LINE
8
Layer 1
10
292.521368
20
848.294953
11
297.082802
21
852.937638
0
LINE
8
Layer 1
10
297.082802
20
852.937638
11
301.853130
21
857.341572
0
LINE
8
Layer 1
10
301.853130
20
857.341572
11
306.841659
21
861.465554
0
LINE
8
Layer 1
10
306.841659
20
861.465554
11
312.057695
21
865.268386
0
LINE
8
Layer 1
10
312.057695
20
865.268386
11
312.672926
21
865.825612
0
LINE
8
Layer 1
10
312.672926
20
865.825612
11
315.375560
21
868.647678
0
LINE
8
Layer 1
10
315.375560
20
868.647678
11
318.447344
21
871.135963
0
LINE
8
Layer 1
10
318.447344
20
871.135963
11
318.449144
21
871.137763
0
LINE
8
Layer 1
10
318.449144
20
871.137763
11
321.457875
21
873.083330
0
LINE
8
Layer 1
10
321.457875
20
873.083330
11
324.647749
21
874.760875
0
LINE
8
Layer 1
10
324.647749
20
874.760875
11
327.985440
21
876.179011
0
LINE
8
Layer 1
10
327.985440
20
876.179011
11
331.437620
21
877.346350
0
LINE
8
Layer 1
10
331.437620
20
877.346350
11
331.432220
21
877.346350
0
LINE
8
Layer 1
10
331.432220
20
877.346350
11
335.249662
21
878.325985
0
LINE
8
Layer 1
10
335.249662
20
878.325985
11
339.128111
21
879.018300
0
LINE
8
Layer 1
10
339.128111
20
879.018300
11
343.044258
21
879.416487
0
LINE
8
Layer 1
10
343.044258
20
879.416487
11
346.974797
21
879.513739
0
LINE
8
Layer 1
10
346.974797
20
879.513739
11
349.804570
21
879.382922
0
LINE
8
Layer 1
10
349.804570
20
879.382922
11
352.598654
21
879.074492
0
LINE
8
Layer 1
10
352.598654
20
879.074492
11
355.338819
21
878.571719
0
LINE
8
Layer 1
10
355.338819
20
878.571719
11
358.006835
21
877.857874
0
LINE
8
Layer 1
10
358.006835
20
877.857874
11
359.191462
21
877.732473
0
LINE
8
Layer 1
10
359.191462
20
877.732473
11
360.293958
21
878.059694
0
LINE
8
Layer 1
10
360.293958
20
878.059694
11
361.193321
21
878.776436
0
LINE
8
Layer 1
10
361.193321
20
878.776436
11
361.768547
21
879.819595
0
LINE
8
Layer 1
10
361.768547
20
879.819595
11
361.894869
21
880.983538
0
LINE
8
Layer 1
10
361.894869
20
880.983538
11
361.566064
21
882.107197
0
LINE
8
Layer 1
10
361.566064
20
882.107197
11
360.832208
21
883.019435
0
LINE
8
Layer 1
10
360.832208
20
883.019435
11
359.805071
21
883.581316
0
LINE
8
Layer 1
10
359.805071
20
883.581316
11
356.650953
21
884.426538
0
LINE
8
Layer 1
10
356.650953
20
884.426538
11
353.464548
21
885.012476
0
LINE
8
Layer 1
10
353.464548
20
885.012476
11
350.265886
21
885.365792
0
LINE
8
Layer 1
10
350.265886
20
885.365792
11
347.074994
21
885.513148
0
LINE
8
Layer 1
10
347.074994
20
885.513148
11
347.067794
21
885.513148
0
LINE
8
Layer 1
10
347.067794
20
885.513148
11
347.068262
21
885.513247
0
LINE
8
Layer 1
10
371.568647
20
875.068324
11
370.400227
21
875.138097
0
LINE
8
Layer 1
10
370.400227
20
875.138097
11
369.294041
21
874.755439
0
LINE
8
Layer 1
10
369.294041
20
874.755439
11
368.418018
21
873.978810
0
LINE
8
Layer 1
10
368.418018
20
873.978810
11
367.905943
21
872.926029
0
LINE
8
Layer 1
10
367.905943
20
872.926029
11
367.835797
21
871.757420
0
LINE
8
Layer 1
10
367.835797
20
871.757420
11
368.218262
21
870.650944
0
LINE
8
Layer 1
10
368.218262
20
870.650944
11
368.487209
21
870.153487
0
LINE
8
Layer 1
10
368.487209
20
870.153487
11
368.489009
21
870.151687
0
LINE
8
Layer 1
10
368.489009
20
870.151687
11
369.049769
21
868.836101
0
LINE
8
Layer 1
10
369.049769
20
868.836101
11
369.439487
21
867.434607
0
LINE
8
Layer 1
10
369.439487
20
867.434607
11
369.657628
21
865.975297
0
LINE
8
Layer 1
10
369.657628
20
865.975297
11
369.703658
21
864.486259
0
LINE
8
Layer 1
10
369.703658
20
864.486259
11
369.703658
21
864.479059
0
LINE
8
Layer 1
10
369.703658
20
864.479059
11
369.535295
21
862.545176
0
LINE
8
Layer 1
10
369.535295
20
862.545176
11
369.143432
21
860.595421
0
LINE
8
Layer 1
10
369.143432
20
860.595421
11
368.555753
21
858.644223
0
LINE
8
Layer 1
10
368.555753
20
858.644223
11
367.799942
21
856.706011
0
LINE
8
Layer 1
10
367.799942
20
856.706011
11
366.553257
21
854.130946
0
LINE
8
Layer 1
10
366.553257
20
854.130946
11
365.104489
21
851.624444
0
LINE
8
Layer 1
10
365.104489
20
851.624444
11
363.486016
21
849.180650
0
LINE
8
Layer 1
10
363.486016
20
849.180650
11
361.730216
21
846.793708
0
LINE
8
Layer 1
10
361.730216
20
846.793708
11
356.328537
21
841.656435
0
LINE
8
Layer 1
10
356.328537
20
841.656435
11
351.140413
21
836.305544
0
LINE
8
Layer 1
10
351.140413
20
836.305544
11
346.174584
21
830.749076
0
LINE
8
Layer 1
10
346.174584
20
830.749076
11
341.439788
21
824.995069
0
LINE
8
Layer 1
10
341.439788
20
824.995069
11
341.441588
21
824.995069
0
LINE
8
Layer 1
10
341.441588
20
824.995069
11
336.807233
21
818.869083
0
LINE
8
Layer 1
10
336.807233
20
818.869083
11
332.429370
21
812.560443
0
LINE
8
Layer 1
10
332.429370
20
812.560443
11
328.311384
21
806.080969
0
LINE
8
Layer 1
10
328.311384
20
806.080969
11
324.456660
21
799.442478
0
LINE
8
Layer 1
10
324.456660
20
799.442478
11
320.868582
21
792.656789
0
LINE
8
Layer 1
10
320.868582
20
792.656789
11
317.550534
21
785.735721
0
LINE
8
Layer 1
10
317.550534
20
785.735721
11
314.505902
21
778.691091
0
LINE
8
Layer 1
10
314.505902
20
778.691091
11
311.738069
21
771.534718
0
LINE
8
Layer 1
10
311.738069
20
771.534718
11
311.559421
21
770.377856
0
LINE
8
Layer 1
10
311.559421
20
770.377856
11
311.837097
21
769.240692
0
LINE
8
Layer 1
10
311.837097
20
769.240692
11
312.528820
21
768.296359
0
LINE
8
Layer 1
10
312.528820
20
768.296359
11
313.529276
21
767.688631
0
LINE
8
Layer 1
10
313.529276
20
767.688631
11
314.686141
21
767.509980
0
LINE
8
Layer 1
10
314.686141
20
767.509980
11
315.823308
21
767.787654
0
LINE
8
Layer 1
10
315.823308
20
767.787654
11
316.767643
21
768.479379
0
LINE
8
Layer 1
10
316.767643
20
768.479379
11
317.375372
21
769.479838
0
LINE
8
Layer 1
10
317.375372
20
769.479838
11
320.059216
21
776.418837
0
LINE
8
Layer 1
10
320.059216
20
776.418837
11
323.011120
21
783.248540
0
LINE
8
Layer 1
10
323.011120
20
783.248540
11
326.227494
21
789.957264
0
LINE
8
Layer 1
10
326.227494
20
789.957264
11
329.704748
21
796.533326
0
LINE
8
Layer 1
10
329.704748
20
796.533326
11
333.439292
21
802.965043
0
LINE
8
Layer 1
10
333.439292
20
802.965043
11
337.427536
21
809.240732
0
LINE
8
Layer 1
10
337.427536
20
809.240732
11
341.665891
21
815.348710
0
LINE
8
Layer 1
10
341.665891
20
815.348710
11
346.150766
21
821.277295
0
LINE
8
Layer 1
10
346.150766
20
821.277295
11
350.792034
21
826.918860
0
LINE
8
Layer 1
10
350.792034
20
826.918860
11
355.659521
21
832.365539
0
LINE
8
Layer 1
10
355.659521
20
832.365539
11
360.746362
21
837.606575
0
LINE
8
Layer 1
10
360.746362
20
837.606575
11
366.045689
21
842.631208
0
LINE
8
Layer 1
10
366.045689
20
842.631208
11
366.404276
21
843.017920
0
LINE
8
Layer 1
10
366.404276
20
843.017920
11
368.344357
21
845.646891
0
LINE
8
Layer 1
10
368.344357
20
845.646891
11
370.170152
21
848.399675
0
LINE
8
Layer 1
10
370.170152
20
848.399675
11
371.838301
21
851.288144
0
LINE
8
Layer 1
10
371.838301
20
851.288144
11
373.305449
21
854.324170
0
LINE
8
Layer 1
10
373.305449
20
854.324170
11
373.309049
21
854.331370
0
LINE
8
Layer 1
10
373.309049
20
854.331370
11
374.224137
21
856.673863
0
LINE
8
Layer 1
10
374.224137
20
856.673863
11
374.963979
21
859.126560
0
LINE
8
Layer 1
10
374.963979
20
859.126560
11
375.474451
21
861.679952
0
LINE
8
Layer 1
10
375.474451
20
861.679952
11
375.701429
21
864.324529
0
LINE
8
Layer 1
10
375.701429
20
864.324529
11
375.701429
21
864.328129
0
LINE
8
Layer 1
10
375.701429
20
864.328129
11
375.635223
21
866.509767
0
LINE
8
Layer 1
10
375.635223
20
866.509767
11
375.311051
21
868.684011
0
LINE
8
Layer 1
10
375.311051
20
868.684011
11
374.714929
21
870.818253
0
LINE
8
Layer 1
10
374.714929
20
870.818253
11
373.832876
21
872.879884
0
LINE
8
Layer 1
10
373.832876
20
872.879884
11
373.831076
21
872.883484
0
LINE
8
Layer 1
10
373.831076
20
872.883484
11
373.398653
21
873.679768
0
LINE
8
Layer 1
10
373.398653
20
873.679768
11
372.621889
21
874.556188
0
LINE
8
Layer 1
10
372.621889
20
874.556188
11
371.568764
21
875.068441
0
LINE
8
Layer 1
10
371.568764
20
875.068441
11
371.568647
21
875.068324
0
LINE
8
Layer 1
10
510.430565
20
864.850165
11
506.837313
21
864.637875
0
LINE
8
Layer 1
10
506.837313
20
864.637875
11
503.256065
21
864.256576
0
LINE
8
Layer 1
10
503.256065
20
864.256576
11
499.694148
21
863.703173
0
LINE
8
Layer 1
10
499.694148
20
863.703173
11
496.158887
21
862.974574
0
LINE
8
Layer 1
10
496.158887
20
862.974574
11
490.895369
21
861.545564
0
LINE
8
Layer 1
10
490.895369
20
861.545564
11
485.784272
21
859.812271
0
LINE
8
Layer 1
10
485.784272
20
859.812271
11
484.784850
21
859.202691
0
LINE
8
Layer 1
10
484.784850
20
859.202691
11
484.094817
21
858.257023
0
LINE
8
Layer 1
10
484.094817
20
858.257023
11
483.819245
21
857.119266
0
LINE
8
Layer 1
10
483.819245
20
857.119266
11
484.000094
21
855.962665
0
LINE
8
Layer 1
10
484.000094
20
855.962665
11
484.623197
21
854.947860
0
LINE
8
Layer 1
10
484.623197
20
854.947860
11
485.554660
21
854.273997
0
LINE
8
Layer 1
10
485.554660
20
854.273997
11
486.670803
21
853.998423
0
LINE
8
Layer 1
10
486.670803
20
853.998423
11
487.847945
21
854.178487
0
LINE
8
Layer 1
10
487.847945
20
854.178487
11
492.663520
21
855.811831
0
LINE
8
Layer 1
10
492.663520
20
855.811831
11
497.514161
21
857.129848
0
LINE
8
Layer 1
10
497.514161
20
857.129848
11
497.515961
21
857.129848
0
LINE
8
Layer 1
10
497.515961
20
857.129848
11
500.760033
21
857.798345
0
LINE
8
Layer 1
10
500.760033
20
857.798345
11
504.034908
21
858.307070
0
LINE
8
Layer 1
10
504.034908
20
858.307070
11
507.333121
21
858.658238
0
LINE
8
Layer 1
10
507.333121
20
858.658238
11
510.647210
21
858.854066
0
LINE
8
Layer 1
10
510.647210
20
858.854066
11
513.969709
21
858.896769
0
LINE
8
Layer 1
10
513.969709
20
858.896769
11
517.293155
21
858.788563
0
LINE
8
Layer 1
10
517.293155
20
858.788563
11
523.913033
21
858.128290
0
LINE
8
Layer 1
10
523.913033
20
858.128290
11
523.914833
21
858.128290
0
LINE
8
Layer 1
10
523.914833
20
858.128290
11
528.289762
21
857.368703
0
LINE
8
Layer 1
10
528.289762
20
857.368703
11
532.616412
21
856.363669
0
LINE
8
Layer 1
10
532.616412
20
856.363669
11
536.882173
21
855.119204
0
LINE
8
Layer 1
10
536.882173
20
855.119204
11
541.074433
21
853.641324
0
LINE
8
Layer 1
10
541.074433
20
853.641324
11
545.180581
21
851.936046
0
LINE
8
Layer 1
10
545.180581
20
851.936046
11
549.188005
21
850.009387
0
LINE
8
Layer 1
10
549.188005
20
850.009387
11
553.084094
21
847.867361
0
LINE
8
Layer 1
10
553.084094
20
847.867361
11
556.856237
21
845.515987
0
LINE
8
Layer 1
10
556.856237
20
845.515987
11
559.773419
21
843.487739
0
LINE
8
Layer 1
10
559.773419
20
843.487739
11
562.595862
21
841.330338
0
LINE
8
Layer 1
10
562.595862
20
841.330338
11
565.315456
21
839.047395
0
LINE
8
Layer 1
10
565.315456
20
839.047395
11
567.924094
21
836.642521
0
LINE
8
Layer 1
10
567.924094
20
836.642521
11
570.413666
21
834.119328
0
LINE
8
Layer 1
10
570.413666
20
834.119328
11
572.776064
21
831.481427
0
LINE
8
Layer 1
10
572.776064
20
831.481427
11
575.003180
21
828.732429
0
LINE
8
Layer 1
10
575.003180
20
828.732429
11
577.086905
21
825.875944
0
LINE
8
Layer 1
10
577.086905
20
825.875944
11
579.102343
21
822.780554
0
LINE
8
Layer 1
10
579.102343
20
822.780554
11
580.941198
21
819.580743
0
LINE
8
Layer 1
10
580.941198
20
819.580743
11
582.594019
21
816.285369
0
LINE
8
Layer 1
10
582.594019
20
816.285369
11
584.051357
21
812.903290
0
LINE
8
Layer 1
10
584.051357
20
812.903290
11
584.700611
21
811.904689
0
LINE
8
Layer 1
10
584.700611
20
811.904689
11
585.649428
21
811.255054
0
LINE
8
Layer 1
10
585.649428
20
811.255054
11
586.772599
21
811.008539
0
LINE
8
Layer 1
10
586.772599
20
811.008539
11
587.944910
21
811.219300
0
LINE
8
Layer 1
10
587.944910
20
811.219300
11
588.928489
21
811.854620
0
LINE
8
Layer 1
10
588.928489
20
811.854620
11
589.593947
21
812.818065
0
LINE
8
Layer 1
10
589.593947
20
812.818065
11
589.839907
21
813.962864
0
LINE
8
Layer 1
10
589.839907
20
813.962864
11
589.628900
21
815.114617
0
LINE
8
Layer 1
10
589.628900
20
815.114617
11
588.032207
21
818.820234
0
LINE
8
Layer 1
10
588.032207
20
818.820234
11
586.225244
21
822.422740
0
LINE
8
Layer 1
10
586.225244
20
822.422740
11
584.218596
21
825.914055
0
LINE
8
Layer 1
10
584.218596
20
825.914055
11
582.022847
21
829.286098
0
LINE
8
Layer 1
10
582.022847
20
829.286098
11
579.758351
21
832.390851
0
LINE
8
Layer 1
10
579.758351
20
832.390851
11
577.343050
21
835.372879
0
LINE
8
Layer 1
10
577.343050
20
835.372879
11
574.785610
21
838.229131
0
LINE
8
Layer 1
10
574.785610
20
838.229131
11
572.094701
21
840.956555
0
LINE
8
Layer 1
10
572.094701
20
840.956555
11
569.278989
21
843.552102
0
LINE
8
Layer 1
10
569.278989
20
843.552102
11
566.347144
21
846.012719
0
LINE
8
Layer 1
10
566.347144
20
846.012719
11
563.307832
21
848.335357
0
LINE
8
Layer 1
10
563.307832
20
848.335357
11
560.169722
21
850.516963
0
LINE
8
Layer 1
10
560.169722
20
850.516963
11
560.169722
21
850.518763
0
LINE
8
Layer 1
10
560.169722
20
850.518763
11
556.118355
21
853.044507
0
LINE
8
Layer 1
10
556.118355
20
853.044507
11
551.935189
21
855.344956
0
LINE
8
Layer 1
10
551.935189
20
855.344956
11
547.632796
21
857.413854
0
LINE
8
Layer 1
10
547.632796
20
857.413854
11
543.223752
21
859.244947
0
LINE
8
Layer 1
10
543.223752
20
859.244947
11
538.720632
21
860.831980
0
LINE
8
Layer 1
10
538.720632
20
860.831980
11
534.136011
21
862.168699
0
LINE
8
Layer 1
10
534.136011
20
862.168699
11
529.482462
21
863.248849
0
LINE
8
Layer 1
10
529.482462
20
863.248849
11
524.772560
21
864.066175
0
LINE
8
Layer 1
10
524.772560
20
864.066175
11
521.207263
21
864.501627
0
LINE
8
Layer 1
10
521.207263
20
864.501627
11
517.623291
21
864.779288
0
LINE
8
Layer 1
10
517.623291
20
864.779288
11
514.028454
21
864.896390
0
LINE
8
Layer 1
10
514.028454
20
864.896390
11
510.430565
21
864.850165
0
LINE
8
Layer 1
10
510.430565
20
864.850165
11
510.430565
21
864.850165
0
LINE
8
Layer 1
10
407.403416
20
860.499574
11
406.242176
21
860.352166
0
LINE
8
Layer 1
10
406.242176
20
860.352166
11
405.225744
21
859.771586
0
LINE
8
Layer 1
10
405.225744
20
859.771586
11
404.508866
21
858.846225
0
LINE
8
Layer 1
10
404.508866
20
858.846225
11
404.200685
21
857.716963
0
LINE
8
Layer 1
10
404.200685
20
857.716963
11
403.827461
21
854.145995
0
LINE
8
Layer 1
10
403.827461
20
854.145995
11
403.213498
21
850.606269
0
LINE
8
Layer 1
10
403.213498
20
850.606269
11
402.363449
21
847.114554
0
LINE
8
Layer 1
10
402.363449
20
847.114554
11
401.281971
21
843.687619
0
LINE
8
Layer 1
10
401.281971
20
843.687619
11
399.973719
21
840.342232
0
LINE
8
Layer 1
10
399.973719
20
840.342232
11
398.443347
21
837.095163
0
LINE
8
Layer 1
10
398.443347
20
837.095163
11
396.695510
21
833.963179
0
LINE
8
Layer 1
10
396.695510
20
833.963179
11
394.734863
21
830.963050
0
LINE
8
Layer 1
10
394.734863
20
830.963050
11
391.863903
21
827.277956
0
LINE
8
Layer 1
10
391.863903
20
827.277956
11
388.653546
21
823.891595
0
LINE
8
Layer 1
10
388.653546
20
823.891595
11
385.130821
21
820.846578
0
LINE
8
Layer 1
10
385.130821
20
820.846578
11
381.322757
21
818.185516
0
LINE
8
Layer 1
10
381.322757
20
818.185516
11
381.320957
21
818.183716
0
LINE
8
Layer 1
10
381.320957
20
818.183716
11
377.307002
21
815.961070
0
LINE
8
Layer 1
10
377.307002
20
815.961070
11
373.083851
21
814.168879
0
LINE
8
Layer 1
10
373.083851
20
814.168879
11
373.242053
21
814.221619
0
LINE
8
Layer 1
10
373.242053
20
814.221619
11
369.714721
21
813.026867
0
LINE
8
Layer 1
10
369.714721
20
813.026867
11
366.252105
21
811.566428
0
LINE
8
Layer 1
10
366.252105
20
811.566428
11
362.898038
21
809.808486
0
LINE
8
Layer 1
10
362.898038
20
809.808486
11
359.696351
21
807.721225
0
LINE
8
Layer 1
10
359.696351
20
807.721225
11
357.335050
21
805.837640
0
LINE
8
Layer 1
10
357.335050
20
805.837640
11
355.144540
21
803.722624
0
LINE
8
Layer 1
10
355.144540
20
803.722624
11
353.168900
21
801.375806
0
LINE
8
Layer 1
10
353.168900
20
801.375806
11
351.452207
21
798.796816
0
LINE
8
Layer 1
10
351.452207
20
798.796816
11
351.450407
21
798.795016
0
LINE
8
Layer 1
10
351.450407
20
798.795016
11
350.187823
21
796.340682
0
LINE
8
Layer 1
10
350.187823
20
796.340682
11
349.205152
21
793.762806
0
LINE
8
Layer 1
10
349.205152
20
793.762806
11
348.514982
21
791.088924
0
LINE
8
Layer 1
10
348.514982
20
791.088924
11
348.129902
21
788.346574
0
LINE
8
Layer 1
10
348.129902
20
788.346574
11
348.129902
21
788.344774
0
LINE
8
Layer 1
10
348.129902
20
788.344774
11
348.058333
21
785.246790
0
LINE
8
Layer 1
10
348.058333
20
785.246790
11
348.351968
21
782.187902
0
LINE
8
Layer 1
10
348.351968
20
782.187902
11
348.979296
21
779.198076
0
LINE
8
Layer 1
10
348.979296
20
779.198076
11
349.908806
21
776.307274
0
LINE
8
Layer 1
10
349.908806
20
776.307274
11
351.500110
21
772.739431
0
LINE
8
Layer 1
10
351.500110
20
772.739431
11
353.458950
21
769.401041
0
LINE
8
Layer 1
10
353.458950
20
769.401041
11
355.725287
21
766.296332
0
LINE
8
Layer 1
10
355.725287
20
766.296332
11
358.239080
21
763.429534
0
LINE
8
Layer 1
10
358.239080
20
763.429534
11
359.196473
21
762.755948
0
LINE
8
Layer 1
10
359.196473
20
762.755948
11
360.338764
21
762.500039
0
LINE
8
Layer 1
10
360.338764
20
762.500039
11
361.492032
21
762.700772
0
LINE
8
Layer 1
10
361.492032
20
762.700772
11
362.480681
21
763.327582
0
LINE
8
Layer 1
10
362.480681
20
763.327582
11
363.162762
21
764.303589
0
LINE
8
Layer 1
10
363.162762
20
764.303589
11
363.409299
21
765.426401
0
LINE
8
Layer 1
10
363.409299
20
765.426401
11
363.217014
21
766.559765
0
LINE
8
Layer 1
10
363.217014
20
766.559765
11
362.582633
21
767.567428
0
LINE
8
Layer 1
10
362.582633
20
767.567428
11
360.405849
21
770.051348
0
LINE
8
Layer 1
10
360.405849
20
770.051348
11
358.474497
21
772.698604
0
LINE
8
Layer 1
10
358.474497
20
772.698604
11
356.832370
21
775.494773
0
LINE
8
Layer 1
10
356.832370
20
775.494773
11
355.523258
21
778.425433
0
LINE
8
Layer 1
10
355.523258
20
778.425433
11
355.521458
21
778.429033
0
LINE
8
Layer 1
10
355.521458
20
778.429033
11
354.779141
21
780.739967
0
LINE
8
Layer 1
10
354.779141
20
780.739967
11
354.284352
21
783.100042
0
LINE
8
Layer 1
10
354.284352
20
783.100042
11
354.054794
21
785.477883
0
LINE
8
Layer 1
10
354.054794
20
785.477883
11
354.108170
21
787.842115
0
LINE
8
Layer 1
10
354.108170
20
787.842115
11
354.109970
21
787.851115
0
LINE
8
Layer 1
10
354.109970
20
787.851115
11
354.400979
21
789.916718
0
LINE
8
Layer 1
10
354.400979
20
789.916718
11
354.924760
21
791.942833
0
LINE
8
Layer 1
10
354.924760
20
791.942833
11
355.670883
21
793.901507
0
LINE
8
Layer 1
10
355.670883
20
793.901507
11
356.628917
21
795.764788
0
LINE
8
Layer 1
10
356.628917
20
795.764788
11
356.632517
21
795.771988
0
LINE
8
Layer 1
10
356.632517
20
795.771988
11
357.962662
21
797.766772
0
LINE
8
Layer 1
10
357.962662
20
797.766772
11
359.526345
21
799.620989
0
LINE
8
Layer 1
10
359.526345
20
799.620989
11
361.291503
21
801.324778
0
LINE
8
Layer 1
10
361.291503
20
801.324778
11
363.226070
21
802.868281
0
LINE
8
Layer 1
10
363.226070
20
802.868281
11
363.226070
21
802.870081
0
LINE
8
Layer 1
10
363.226070
20
802.870081
11
365.924312
21
804.627084
0
LINE
8
Layer 1
10
365.924312
20
804.627084
11
368.806577
21
806.136113
0
LINE
8
Layer 1
10
368.806577
20
806.136113
11
371.836774
21
807.414421
0
LINE
8
Layer 1
10
371.836774
20
807.414421
11
374.978810
21
808.479259
0
LINE
8
Layer 1
10
374.978810
20
808.479259
11
375.135257
21
808.531999
0
LINE
8
Layer 1
10
375.135257
20
808.531999
11
379.934813
21
810.567492
0
LINE
8
Layer 1
10
379.934813
20
810.567492
11
384.495608
21
813.091759
0
LINE
8
Layer 1
10
384.495608
20
813.091759
11
384.497408
21
813.093559
0
LINE
8
Layer 1
10
384.497408
20
813.093559
11
388.820387
21
816.113417
0
LINE
8
Layer 1
10
388.820387
20
816.113417
11
392.800692
21
819.553074
0
LINE
8
Layer 1
10
392.800692
20
819.553074
11
396.414805
21
823.366051
0
LINE
8
Layer 1
10
396.414805
20
823.366051
11
399.639206
21
827.505871
0
LINE
8
Layer 1
10
399.639206
20
827.505871
11
401.831446
21
830.858827
0
LINE
8
Layer 1
10
401.831446
20
830.858827
11
403.782512
21
834.351799
0
LINE
8
Layer 1
10
403.782512
20
834.351799
11
405.488151
21
837.967775
0
LINE
8
Layer 1
10
405.488151
20
837.967775
11
406.944110
21
841.689742
0
LINE
8
Layer 1
10
406.944110
20
841.689742
11
408.146136
21
845.500688
0
LINE
8
Layer 1
10
408.146136
20
845.500688
11
409.089975
21
849.383600
0
LINE
8
Layer 1
10
409.089975
20
849.383600
11
409.771374
21
853.321467
0
LINE
8
Layer 1
10
409.771374
20
853.321467
11
410.186081
21
857.297275
0
LINE
8
Layer 1
10
410.186081
20
857.297275
11
410.038673
21
858.458517
0
LINE
8
Layer 1
10
410.038673
20
858.458517
11
409.458090
21
859.474950
0
LINE
8
Layer 1
10
409.458090
20
859.474950
11
408.532725
21
860.191827
0
LINE
8
Layer 1
10
408.532725
20
860.191827
11
407.403461
21
860.500006
0
LINE
8
Layer 1
10
407.403461
20
860.500006
11
407.403416
21
860.499574
0
LINE
8
Layer 1
10
438.360257
20
859.810516
11
437.443305
21
859.931477
0
LINE
8
Layer 1
10
437.443305
20
859.931477
11
436.552550
21
859.773718
0
LINE
8
Layer 1
10
436.552550
20
859.773718
11
435.749144
21
859.357941
0
LINE
8
Layer 1
10
435.749144
20
859.357941
11
435.094238
21
858.704848
0
LINE
8
Layer 1
10
435.094238
20
858.704848
11
432.070796
21
854.271646
0
LINE
8
Layer 1
10
432.070796
20
854.271646
11
432.063596
21
854.261116
0
LINE
8
Layer 1
10
432.063596
20
854.261116
11
428.791844
21
848.949822
0
LINE
8
Layer 1
10
428.791844
20
848.949822
11
425.648735
21
843.625287
0
LINE
8
Layer 1
10
425.648735
20
843.625287
11
419.359889
21
833.170885
0
LINE
8
Layer 1
10
419.359889
20
833.170885
11
419.356289
21
833.165485
0
LINE
8
Layer 1
10
419.356289
20
833.165485
11
416.602251
21
828.947962
0
LINE
8
Layer 1
10
416.602251
20
828.947962
11
413.719178
21
824.855413
0
LINE
8
Layer 1
10
413.719178
20
824.855413
11
410.672093
21
820.928105
0
LINE
8
Layer 1
10
410.672093
20
820.928105
11
407.426015
21
817.206307
0
LINE
8
Layer 1
10
407.426015
20
817.206307
11
404.649779
21
814.407114
0
LINE
8
Layer 1
10
404.649779
20
814.407114
11
401.711094
21
811.819566
0
LINE
8
Layer 1
10
401.711094
20
811.819566
11
398.609069
21
809.482028
0
LINE
8
Layer 1
10
398.609069
20
809.482028
11
395.342813
21
807.432865
0
LINE
8
Layer 1
10
395.342813
20
807.432865
11
394.441058
21
807.176230
0
LINE
8
Layer 1
10
394.441058
20
807.176230
11
394.435658
21
807.174430
0
LINE
8
Layer 1
10
394.435658
20
807.174430
11
389.540281
21
805.461161
0
LINE
8
Layer 1
10
389.540281
20
805.461161
11
387.125881
21
804.364818
0
LINE
8
Layer 1
10
387.125881
20
804.364818
11
384.767687
21
803.064670
0
LINE
8
Layer 1
10
384.767687
20
803.064670
11
384.764087
21
803.062870
0
LINE
8
Layer 1
10
384.764087
20
803.062870
11
382.951373
21
801.851165
0
LINE
8
Layer 1
10
382.951373
20
801.851165
11
381.224411
21
800.449690
0
LINE
8
Layer 1
10
381.224411
20
800.449690
11
379.630323
21
798.841328
0
LINE
8
Layer 1
10
379.630323
20
798.841328
11
378.216236
21
797.008966
0
LINE
8
Layer 1
10
378.216236
20
797.008966
11
378.216236
21
797.007166
0
LINE
8
Layer 1
10
378.216236
20
797.007166
11
377.222138
21
795.330425
0
LINE
8
Layer 1
10
377.222138
20
795.330425
11
376.436604
21
793.566941
0
LINE
8
Layer 1
10
376.436604
20
793.566941
11
375.855340
21
791.739389
0
LINE
8
Layer 1
10
375.855340
20
791.739389
11
375.474053
21
789.870445
0
LINE
8
Layer 1
10
375.474053
20
789.870445
11
375.243512
21
787.413143
0
LINE
8
Layer 1
10
375.243512
20
787.413143
11
375.267899
21
785.005185
0
LINE
8
Layer 1
10
375.267899
20
785.005185
11
375.490283
21
782.660764
0
LINE
8
Layer 1
10
375.490283
20
782.660764
11
375.853736
21
780.394075
0
LINE
8
Layer 1
10
375.853736
20
780.394075
11
375.855536
21
780.381745
0
LINE
8
Layer 1
10
375.855536
20
780.381745
11
376.604151
21
777.011555
0
LINE
8
Layer 1
10
376.604151
20
777.011555
11
377.500113
21
773.736693
0
LINE
8
Layer 1
10
377.500113
20
773.736693
11
379.469594
21
767.414365
0
LINE
8
Layer 1
10
379.469594
20
767.414365
11
380.045788
21
766.371766
0
LINE
8
Layer 1
10
380.045788
20
766.371766
11
380.945802
21
765.655874
0
LINE
8
Layer 1
10
380.945802
20
765.655874
11
382.048581
21
765.329678
0
LINE
8
Layer 1
10
382.048581
20
765.329678
11
383.233070
21
765.456163
0
LINE
8
Layer 1
10
383.233070
20
765.456163
11
384.275669
21
766.032357
0
LINE
8
Layer 1
10
384.275669
20
766.032357
11
384.991561
21
766.932371
0
LINE
8
Layer 1
10
384.991561
20
766.932371
11
385.317757
21
768.035150
0
LINE
8
Layer 1
10
385.317757
20
768.035150
11
385.191272
21
769.219639
0
LINE
8
Layer 1
10
385.191272
20
769.219639
11
383.264752
21
775.418324
0
LINE
8
Layer 1
10
383.264752
20
775.418324
11
382.429099
21
778.465500
0
LINE
8
Layer 1
10
382.429099
20
778.465500
11
381.752993
21
781.494442
0
LINE
8
Layer 1
10
381.752993
20
781.494442
11
381.264170
21
785.336468
0
LINE
8
Layer 1
10
381.264170
20
785.336468
11
381.242466
21
787.187084
0
LINE
8
Layer 1
10
381.242466
20
787.187084
11
381.406709
21
788.972173
0
LINE
8
Layer 1
10
381.406709
20
788.972173
11
381.406709
21
788.979373
0
LINE
8
Layer 1
10
381.406709
20
788.979373
11
382.047319
21
791.438954
0
LINE
8
Layer 1
10
382.047319
20
791.438954
11
383.185613
21
793.648123
0
LINE
8
Layer 1
10
383.185613
20
793.648123
11
383.192813
21
793.658653
0
LINE
8
Layer 1
10
383.192813
20
793.658653
11
384.130168
21
794.869675
0
LINE
8
Layer 1
10
384.130168
20
794.869675
11
385.242738
21
795.989246
0
LINE
8
Layer 1
10
385.242738
20
795.989246
11
386.504126
21
797.014030
0
LINE
8
Layer 1
10
386.504126
20
797.014030
11
387.887933
21
797.940691
0
LINE
8
Layer 1
10
387.887933
20
797.940691
11
387.889733
21
797.942491
0
LINE
8
Layer 1
10
387.889733
20
797.942491
11
389.806700
21
798.996785
0
LINE
8
Layer 1
10
389.806700
20
798.996785
11
391.835643
21
799.915541
0
LINE
8
Layer 1
10
391.835643
20
799.915541
11
396.153209
21
801.424717
0
LINE
8
Layer 1
10
396.153209
20
801.424717
11
396.147809
21
801.424717
0
LINE
8
Layer 1
10
396.147809
20
801.424717
11
397.381799
21
801.774520
0
LINE
8
Layer 1
10
397.381799
20
801.774520
11
398.051525
21
802.048741
0
LINE
8
Layer 1
10
398.051525
20
802.048741
11
401.856721
21
804.410471
0
LINE
8
Layer 1
10
401.856721
20
804.410471
11
405.411852
21
807.079044
0
LINE
8
Layer 1
10
405.411852
20
807.079044
11
408.728177
21
809.999263
0
LINE
8
Layer 1
10
408.728177
20
809.999263
11
411.816953
21
813.115933
0
LINE
8
Layer 1
10
411.816953
20
813.115933
11
411.818753
21
813.117733
0
LINE
8
Layer 1
10
411.818753
20
813.117733
11
415.313444
21
817.123162
0
LINE
8
Layer 1
10
415.313444
20
817.123162
11
418.551217
21
821.295790
0
LINE
8
Layer 1
10
418.551217
20
821.295790
11
421.574515
21
825.589351
0
LINE
8
Layer 1
10
421.574515
20
825.589351
11
424.425782
21
829.957579
0
LINE
8
Layer 1
10
424.425782
20
829.957579
11
424.423982
21
829.952179
0
LINE
8
Layer 1
10
424.423982
20
829.952179
11
430.370942
21
839.772149
0
LINE
8
Layer 1
10
430.370942
20
839.772149
11
436.173203
21
849.458617
0
LINE
8
Layer 1
10
436.173203
20
849.458617
11
436.822756
21
848.519217
0
LINE
8
Layer 1
10
436.822756
20
848.519217
11
437.776328
21
847.890655
0
LINE
8
Layer 1
10
437.776328
20
847.890655
11
438.941372
21
848.139077
0
LINE
8
Layer 1
10
438.941372
20
848.139077
11
439.887879
21
848.792279
0
LINE
8
Layer 1
10
439.887879
20
848.792279
11
440.520406
21
849.752725
0
LINE
8
Layer 1
10
440.520406
20
849.752725
11
440.743511
21
850.922881
0
LINE
8
Layer 1
10
440.743511
20
850.922881
11
440.507963
21
857.112136
0
LINE
8
Layer 1
10
440.507963
20
857.112136
11
440.310904
21
858.016037
0
LINE
8
Layer 1
10
440.310904
20
858.016037
11
439.860385
21
858.800743
0
LINE
8
Layer 1
10
439.860385
20
858.800743
11
439.196645
21
859.415707
0
LINE
8
Layer 1
10
439.196645
20
859.415707
11
438.359924
21
859.810381
0
LINE
8
Layer 1
10
438.359924
20
859.810381
11
438.360257
21
859.810516
0
LINE
8
Layer 1
10
474.049118
20
853.369891
11
472.879123
21
853.418141
0
LINE
8
Layer 1
10
472.879123
20
853.418141
11
471.779786
21
853.014814
0
LINE
8
Layer 1
10
471.779786
20
853.014814
11
467.092985
21
849.919942
0
LINE
8
Layer 1
10
467.092985
20
849.919942
11
462.638927
21
846.511834
0
LINE
8
Layer 1
10
462.638927
20
846.511834
11
458.428004
21
842.815860
0
LINE
8
Layer 1
10
458.428004
20
842.815860
11
454.470608
21
838.857391
0
LINE
8
Layer 1
10
454.470608
20
838.857391
11
449.932437
21
833.645927
0
LINE
8
Layer 1
10
449.932437
20
833.645927
11
445.787718
21
828.140232
0
LINE
8
Layer 1
10
445.787718
20
828.140232
11
442.018820
21
822.387891
0
LINE
8
Layer 1
10
442.018820
20
822.387891
11
438.608108
21
816.436492
0
LINE
8
Layer 1
10
438.608108
20
816.436492
11
438.606308
21
816.436492
0
LINE
8
Layer 1
10
438.606308
20
816.436492
11
434.950383
21
809.083148
0
LINE
8
Layer 1
10
434.950383
20
809.083148
11
431.730325
21
801.549962
0
LINE
8
Layer 1
10
431.730325
20
801.549962
11
428.905046
21
793.876836
0
LINE
8
Layer 1
10
428.905046
20
793.876836
11
426.433457
21
786.103675
0
LINE
8
Layer 1
10
426.433457
20
786.103675
11
426.433457
21
786.101875
0
LINE
8
Layer 1
10
426.433457
20
786.101875
11
423.825669
21
776.440239
0
LINE
8
Layer 1
10
423.825669
20
776.440239
11
421.633440
21
766.693382
0
LINE
8
Layer 1
10
421.633440
20
766.693382
11
419.806551
21
756.885684
0
LINE
8
Layer 1
10
419.806551
20
756.885684
11
418.294784
21
747.041524
0
LINE
8
Layer 1
10
418.294784
20
747.041524
11
418.362485
21
745.872804
0
LINE
8
Layer 1
10
418.362485
20
745.872804
11
418.872332
21
744.818980
0
LINE
8
Layer 1
10
418.872332
20
744.818980
11
419.746686
21
744.040523
0
LINE
8
Layer 1
10
419.746686
20
744.040523
11
420.852404
21
743.655976
0
LINE
8
Layer 1
10
420.852404
20
743.655976
11
422.021124
21
743.723677
0
LINE
8
Layer 1
10
422.021124
20
743.723677
11
423.074948
21
744.233524
0
LINE
8
Layer 1
10
423.074948
20
744.233524
11
423.853405
21
745.107878
0
LINE
8
Layer 1
10
423.853405
20
745.107878
11
424.237952
21
746.213596
0
LINE
8
Layer 1
10
424.237952
20
746.213596
11
425.723180
21
755.884931
0
LINE
8
Layer 1
10
425.723180
20
755.884931
11
427.512100
21
765.489892
0
LINE
8
Layer 1
10
427.512100
20
765.489892
11
429.651592
21
775.004700
0
LINE
8
Layer 1
10
429.651592
20
775.004700
11
432.188534
21
784.405582
0
LINE
8
Layer 1
10
432.188534
20
784.405582
11
434.583611
21
791.937221
0
LINE
8
Layer 1
10
434.583611
20
791.937221
11
437.309002
21
799.338499
0
LINE
8
Layer 1
10
437.309002
20
799.338499
11
440.400477
21
806.571756
0
LINE
8
Layer 1
10
440.400477
20
806.571756
11
443.893808
21
813.599332
0
LINE
8
Layer 1
10
443.893808
20
813.599332
11
443.895608
21
813.601132
0
LINE
8
Layer 1
10
443.895608
20
813.601132
11
447.136455
21
819.255466
0
LINE
8
Layer 1
10
447.136455
20
819.255466
11
450.700336
21
824.694367
0
LINE
8
Layer 1
10
450.700336
20
824.694367
11
454.599400
21
829.874150
0
LINE
8
Layer 1
10
454.599400
20
829.874150
11
458.845796
21
834.751132
0
LINE
8
Layer 1
10
458.845796
20
834.751132
11
458.847596
21
834.752932
0
LINE
8
Layer 1
10
458.847596
20
834.752932
11
462.532253
21
838.438247
0
LINE
8
Layer 1
10
462.532253
20
838.438247
11
466.445084
21
841.872075
0
LINE
8
Layer 1
10
466.445084
20
841.872075
11
470.574015
21
845.031243
0
LINE
8
Layer 1
10
470.574015
20
845.031243
11
474.906971
21
847.892581
0
LINE
8
Layer 1
10
474.906971
20
847.892581
11
475.780647
21
848.702400
0
LINE
8
Layer 1
10
475.780647
20
848.702400
11
476.259360
21
849.748081
0
LINE
8
Layer 1
10
476.259360
20
849.748081
11
476.311047
21
850.896969
0
LINE
8
Layer 1
10
476.311047
20
850.896969
11
475.903649
21
852.016408
0
LINE
8
Layer 1
10
475.903649
20
852.016408
11
475.111005
21
852.877591
0
LINE
8
Layer 1
10
475.111005
20
852.877591
11
474.049154
21
853.369927
0
LINE
8
Layer 1
10
474.049154
20
853.369927
11
474.049118
21
853.369891
0
LINE
8
Layer 1
10
517.180565
20
846.554848
11
516.016481
21
846.430401
0
LINE
8
Layer 1
10
516.016481
20
846.430401
11
514.988665
21
845.869889
0
LINE
8
Layer 1
10
514.988665
20
845.869889
11
514.253640
21
844.958672
0
LINE
8
Layer 1
10
514.253640
20
844.958672
11
513.923339
21
843.835516
0
LINE
8
Layer 1
10
513.923339
20
843.835516
11
514.053198
21
842.651546
0
LINE
8
Layer 1
10
514.053198
20
842.651546
11
514.607673
21
841.644191
0
LINE
8
Layer 1
10
514.607673
20
841.644191
11
515.499375
21
840.918191
0
LINE
8
Layer 1
10
515.499375
20
840.918191
11
516.640916
21
840.578290
0
LINE
8
Layer 1
10
516.640916
20
840.578290
11
519.834556
21
840.191516
0
LINE
8
Layer 1
10
519.834556
20
840.191516
11
523.003008
21
839.612805
0
LINE
8
Layer 1
10
523.003008
20
839.612805
11
526.135140
21
838.847549
0
LINE
8
Layer 1
10
526.135140
20
838.847549
11
529.219820
21
837.901141
0
LINE
8
Layer 1
10
529.219820
20
837.901141
11
529.597757
21
837.799189
0
LINE
8
Layer 1
10
529.597757
20
837.799189
11
532.759552
21
837.073864
0
LINE
8
Layer 1
10
532.759552
20
837.073864
11
535.874555
21
836.162289
0
LINE
8
Layer 1
10
535.874555
20
836.162289
11
538.931724
21
835.068968
0
LINE
8
Layer 1
10
538.931724
20
835.068968
11
541.920017
21
833.798401
0
LINE
8
Layer 1
10
541.920017
20
833.798401
11
541.921817
21
833.796601
0
LINE
8
Layer 1
10
541.921817
20
833.796601
11
545.572631
21
831.953850
0
LINE
8
Layer 1
10
545.572631
20
831.953850
11
549.081607
21
829.848707
0
LINE
8
Layer 1
10
549.081607
20
829.848707
11
552.432078
21
827.495650
0
LINE
8
Layer 1
10
552.432078
20
827.495650
11
555.607379
21
824.909153
0
LINE
8
Layer 1
10
555.607379
20
824.909153
11
558.590845
21
822.103691
0
LINE
8
Layer 1
10
558.590845
20
822.103691
11
561.365811
21
819.093742
0
LINE
8
Layer 1
10
561.365811
20
819.093742
11
563.915612
21
815.893779
0
LINE
8
Layer 1
10
563.915612
20
815.893779
11
566.223581
21
812.518279
0
LINE
8
Layer 1
10
566.223581
20
812.518279
11
566.225381
21
812.516479
0
LINE
8
Layer 1
10
566.225381
20
812.516479
11
568.945130
21
807.687308
0
LINE
8
Layer 1
10
568.945130
20
807.687308
11
571.155420
21
802.607896
0
LINE
8
Layer 1
10
571.155420
20
802.607896
11
572.821979
21
797.334144
0
LINE
8
Layer 1
10
572.821979
20
797.334144
11
573.440650
21
794.641859
0
LINE
8
Layer 1
10
573.440650
20
794.641859
11
573.910535
21
791.921950
0
LINE
8
Layer 1
10
573.910535
20
791.921950
11
573.910535
21
791.916550
0
LINE
8
Layer 1
10
573.910535
20
791.916550
11
574.355361
21
787.431611
0
LINE
8
Layer 1
10
574.355361
20
787.431611
11
574.391242
21
782.922487
0
LINE
8
Layer 1
10
574.391242
20
782.922487
11
574.020218
21
778.427971
0
LINE
8
Layer 1
10
574.020218
20
778.427971
11
573.244328
21
773.986858
0
LINE
8
Layer 1
10
573.244328
20
773.986858
11
573.175748
21
773.478853
0
LINE
8
Layer 1
10
573.175748
20
773.478853
11
572.843155
21
769.830835
0
LINE
8
Layer 1
10
572.843155
20
769.830835
11
572.199141
21
766.221809
0
LINE
8
Layer 1
10
572.199141
20
766.221809
11
571.251096
21
762.679098
0
LINE
8
Layer 1
10
571.251096
20
762.679098
11
570.006407
21
759.230026
0
LINE
8
Layer 1
10
570.006407
20
759.230026
11
569.781974
21
758.060292
0
LINE
8
Layer 1
10
569.781974
20
758.060292
11
570.015332
21
756.934349
0
LINE
8
Layer 1
10
570.015332
20
756.934349
11
570.653800
21
755.978020
0
LINE
8
Layer 1
10
570.653800
20
755.978020
11
571.644695
21
755.317132
0
LINE
8
Layer 1
10
571.644695
20
755.317132
11
572.793868
21
755.092701
0
LINE
8
Layer 1
10
572.793868
20
755.092701
11
573.941425
21
755.325257
0
LINE
8
Layer 1
10
573.941425
20
755.325257
11
574.912558
21
755.979374
0
LINE
8
Layer 1
10
574.912558
20
755.979374
11
575.559335
21
756.955411
0
LINE
8
Layer 1
10
575.559335
20
756.955411
11
576.932478
21
760.762563
0
LINE
8
Layer 1
10
576.932478
20
760.762563
11
577.980219
21
764.670652
0
LINE
8
Layer 1
10
577.980219
20
764.670652
11
578.703017
21
768.653788
0
LINE
8
Layer 1
10
578.703017
20
768.653788
11
579.101330
21
772.686079
0
LINE
8
Layer 1
10
579.101330
20
772.686079
11
579.103130
21
772.693279
0
LINE
8
Layer 1
10
579.103130
20
772.693279
11
579.972338
21
777.668842
0
LINE
8
Layer 1
10
579.972338
20
777.668842
11
580.387818
21
782.700901
0
LINE
8
Layer 1
10
580.387818
20
782.700901
11
580.347284
21
787.750341
0
LINE
8
Layer 1
10
580.347284
20
787.750341
11
579.848447
21
792.778048
0
LINE
8
Layer 1
10
579.848447
20
792.778048
11
579.322657
21
795.823883
0
LINE
8
Layer 1
10
579.322657
20
795.823883
11
578.632090
21
798.832437
0
LINE
8
Layer 1
10
578.632090
20
798.832437
11
577.781568
21
801.796895
0
LINE
8
Layer 1
10
577.781568
20
801.796895
11
576.775916
21
804.710443
0
LINE
8
Layer 1
10
576.775916
20
804.710443
11
575.619954
21
807.566267
0
LINE
8
Layer 1
10
575.619954
20
807.566267
11
574.318507
21
810.357553
0
LINE
8
Layer 1
10
574.318507
20
810.357553
11
572.876397
21
813.077487
0
LINE
8
Layer 1
10
572.876397
20
813.077487
11
571.298447
21
815.719255
0
LINE
8
Layer 1
10
571.298447
20
815.719255
11
571.296647
21
815.722855
0
LINE
8
Layer 1
10
571.296647
20
815.722855
11
568.740495
21
819.462587
0
LINE
8
Layer 1
10
568.740495
20
819.462587
11
565.921277
21
823.003190
0
LINE
8
Layer 1
10
565.921277
20
823.003190
11
562.855839
21
826.330098
0
LINE
8
Layer 1
10
562.855839
20
826.330098
11
559.561027
21
829.428747
0
LINE
8
Layer 1
10
559.561027
20
829.428747
11
556.053688
21
832.284570
0
LINE
8
Layer 1
10
556.053688
20
832.284570
11
552.350666
21
834.883004
0
LINE
8
Layer 1
10
552.350666
20
834.883004
11
548.468808
21
837.209482
0
LINE
8
Layer 1
10
548.468808
20
837.209482
11
544.424960
21
839.249440
0
LINE
8
Layer 1
10
544.424960
20
839.249440
11
544.428560
21
839.249440
0
LINE
8
Layer 1
10
544.428560
20
839.249440
11
541.152821
21
840.642193
0
LINE
8
Layer 1
10
541.152821
20
840.642193
11
537.800985
21
841.841624
0
LINE
8
Layer 1
10
537.800985
20
841.841624
11
534.383980
21
842.844476
0
LINE
8
Layer 1
10
534.383980
20
842.844476
11
530.912738
21
843.647488
0
LINE
8
Layer 1
10
530.912738
20
843.647488
11
527.552012
21
844.668713
0
LINE
8
Layer 1
10
527.552012
20
844.668713
11
524.136856
21
845.499541
0
LINE
8
Layer 1
10
524.136856
20
845.499541
11
520.676634
21
846.131197
0
LINE
8
Layer 1
10
520.676634
20
846.131197
11
517.180709
21
846.554911
0
LINE
8
Layer 1
10
517.180709
20
846.554911
11
517.180565
21
846.554848
0
LINE
8
Layer 1
10
501.453416
20
845.890396
11
495.635166
21
844.586819
0
LINE
8
Layer 1
10
495.635166
20
844.586819
11
489.978320
21
842.755160
0
LINE
8
Layer 1
10
489.978320
20
842.755160
11
484.514004
21
840.437995
0
LINE
8
Layer 1
10
484.514004
20
840.437995
11
479.273339
21
837.677896
0
LINE
8
Layer 1
10
479.273339
20
837.677896
11
476.297244
21
835.860630
0
LINE
8
Layer 1
10
476.297244
20
835.860630
11
473.409844
21
833.913685
0
LINE
8
Layer 1
10
473.409844
20
833.913685
11
470.613515
21
831.843534
0
LINE
8
Layer 1
10
470.613515
20
831.843534
11
467.910635
21
829.656650
0
LINE
8
Layer 1
10
467.910635
20
829.656650
11
462.794731
21
824.958577
0
LINE
8
Layer 1
10
462.794731
20
824.958577
11
458.081147
21
819.871252
0
LINE
8
Layer 1
10
458.081147
20
819.871252
11
458.079347
21
819.869452
0
LINE
8
Layer 1
10
458.079347
20
819.869452
11
455.690526
21
816.952229
0
LINE
8
Layer 1
10
455.690526
20
816.952229
11
453.426194
21
813.936364
0
LINE
8
Layer 1
10
453.426194
20
813.936364
11
451.291022
21
810.826905
0
LINE
8
Layer 1
10
451.291022
20
810.826905
11
449.289681
21
807.628904
0
LINE
8
Layer 1
10
449.289681
20
807.628904
11
447.426844
21
804.347409
0
LINE
8
Layer 1
10
447.426844
20
804.347409
11
445.707182
21
800.987470
0
LINE
8
Layer 1
10
445.707182
20
800.987470
11
444.135366
21
797.554136
0
LINE
8
Layer 1
10
444.135366
20
797.554136
11
442.716068
21
794.052457
0
LINE
8
Layer 1
10
442.716068
20
794.052457
11
442.712468
21
794.041927
0
LINE
8
Layer 1
10
442.712468
20
794.041927
11
440.842160
21
788.608528
0
LINE
8
Layer 1
10
440.842160
20
788.608528
11
438.737192
21
782.221435
0
LINE
8
Layer 1
10
438.737192
20
782.221435
11
437.089409
21
775.724031
0
LINE
8
Layer 1
10
437.089409
20
775.724031
11
435.857697
21
769.152665
0
LINE
8
Layer 1
10
435.857697
20
769.152665
11
435.000944
21
762.543682
0
LINE
8
Layer 1
10
435.000944
20
762.543682
11
434.585099
21
757.674737
0
LINE
8
Layer 1
10
434.585099
20
757.674737
11
434.332982
21
752.801884
0
LINE
8
Layer 1
10
434.332982
20
752.801884
11
434.520018
21
751.646012
0
LINE
8
Layer 1
10
434.520018
20
751.646012
11
435.135272
21
750.649777
0
LINE
8
Layer 1
10
435.135272
20
750.649777
11
436.085021
21
749.964942
0
LINE
8
Layer 1
10
436.085021
20
749.964942
11
437.224583
21
749.695831
0
LINE
8
Layer 1
10
437.224583
20
749.695831
11
438.399851
21
749.890074
0
LINE
8
Layer 1
10
438.399851
20
749.890074
11
439.375556
21
750.498760
0
LINE
8
Layer 1
10
439.375556
20
750.498760
11
440.051849
21
751.428882
0
LINE
8
Layer 1
10
440.051849
20
751.428882
11
440.328881
21
752.587432
0
LINE
8
Layer 1
10
440.328881
20
752.587432
11
440.571685
21
757.266997
0
LINE
8
Layer 1
10
440.571685
20
757.266997
11
440.970482
21
761.928451
0
LINE
8
Layer 1
10
440.970482
20
761.928451
11
441.786231
21
768.220586
0
LINE
8
Layer 1
10
441.786231
20
768.220586
11
442.951710
21
774.439610
0
LINE
8
Layer 1
10
442.951710
20
774.439610
11
444.500745
21
780.551002
0
LINE
8
Layer 1
10
444.500745
20
780.551002
11
446.467160
21
786.520240
0
LINE
8
Layer 1
10
446.467160
20
786.520240
11
446.495240
21
786.599350
0
LINE
8
Layer 1
10
446.495240
20
786.599350
11
448.311062
21
791.885095
0
LINE
8
Layer 1
10
448.311062
20
791.885095
11
448.321592
21
791.913175
0
LINE
8
Layer 1
10
448.321592
20
791.913175
11
449.640624
21
795.168289
0
LINE
8
Layer 1
10
449.640624
20
795.168289
11
451.103018
21
798.363004
0
LINE
8
Layer 1
10
451.103018
20
798.363004
11
452.704328
21
801.492099
0
LINE
8
Layer 1
10
452.704328
20
801.492099
11
454.440108
21
804.550355
0
LINE
8
Layer 1
10
454.440108
20
804.550355
11
458.297287
21
810.433472
0
LINE
8
Layer 1
10
458.297287
20
810.433472
11
462.638981
21
815.970598
0
LINE
8
Layer 1
10
462.638981
20
815.970598
11
462.640781
21
815.972398
0
LINE
8
Layer 1
10
462.640781
20
815.972398
11
467.030768
21
820.709933
0
LINE
8
Layer 1
10
467.030768
20
820.709933
11
471.782262
21
825.073135
0
LINE
8
Layer 1
10
471.782262
20
825.073135
11
476.873026
21
829.014631
0
LINE
8
Layer 1
10
476.873026
20
829.014631
11
482.280824
21
832.487047
0
LINE
8
Layer 1
10
482.280824
20
832.487047
11
482.282624
21
832.487047
0
LINE
8
Layer 1
10
482.282624
20
832.487047
11
487.088177
21
835.017812
0
LINE
8
Layer 1
10
487.088177
20
835.017812
11
492.079132
21
837.134452
0
LINE
8
Layer 1
10
492.079132
20
837.134452
11
497.222027
21
838.800778
0
LINE
8
Layer 1
10
497.222027
20
838.800778
11
502.483403
21
839.980600
0
LINE
8
Layer 1
10
502.483403
20
839.980600
11
503.592980
21
840.413416
0
LINE
8
Layer 1
10
503.592980
20
840.413416
11
504.421779
21
841.210388
0
LINE
8
Layer 1
10
504.421779
20
841.210388
11
504.891351
21
842.259946
0
LINE
8
Layer 1
10
504.891351
20
842.259946
11
504.923249
21
843.450523
0
LINE
8
Layer 1
10
504.923249
20
843.450523
11
504.490433
21
844.560100
0
LINE
8
Layer 1
10
504.490433
20
844.560100
11
503.693461
21
845.388899
0
LINE
8
Layer 1
10
503.693461
20
845.388899
11
502.643903
21
845.858471
0
LINE
8
Layer 1
10
502.643903
20
845.858471
11
501.453326
21
845.890369
0
LINE
8
Layer 1
10
501.453326
20
845.890369
11
501.453416
21
845.890396
0
LINE
8
Layer 1
10
436.950488
20
838.918915
11
435.762028
21
838.996379
0
LINE
8
Layer 1
10
435.762028
20
838.996379
11
434.673832
21
838.625094
0
LINE
8
Layer 1
10
434.673832
20
838.625094
11
433.804189
21
837.872934
0
LINE
8
Layer 1
10
433.804189
20
837.872934
11
433.271387
21
836.807776
0
LINE
8
Layer 1
10
433.271387
20
836.807776
11
432.057678
21
833.227018
0
LINE
8
Layer 1
10
432.057678
20
833.227018
11
430.483493
21
829.593718
0
LINE
8
Layer 1
10
430.483493
20
829.593718
11
430.481693
21
829.588318
0
LINE
8
Layer 1
10
430.481693
20
829.588318
11
428.363460
21
825.445340
0
LINE
8
Layer 1
10
428.363460
20
825.445340
11
425.966646
21
821.436745
0
LINE
8
Layer 1
10
425.966646
20
821.436745
11
423.322474
21
817.563360
0
LINE
8
Layer 1
10
423.322474
20
817.563360
11
420.462164
21
813.826015
0
LINE
8
Layer 1
10
420.462164
20
813.826015
11
420.460364
21
813.824215
0
LINE
8
Layer 1
10
420.460364
20
813.824215
11
416.275172
21
808.926377
0
LINE
8
Layer 1
10
416.275172
20
808.926377
11
411.828942
21
804.208425
0
LINE
8
Layer 1
10
411.828942
20
804.208425
11
407.190953
21
799.614677
0
LINE
8
Layer 1
10
407.190953
20
799.614677
11
402.430484
21
795.089455
0
LINE
8
Layer 1
10
402.430484
20
795.089455
11
402.430484
21
795.091255
0
LINE
8
Layer 1
10
402.430484
20
795.091255
11
393.655484
21
786.845356
0
LINE
8
Layer 1
10
393.655484
20
786.845356
11
393.135418
21
786.189013
0
LINE
8
Layer 1
10
393.135418
20
786.189013
11
392.817008
21
785.414500
0
LINE
8
Layer 1
10
392.817008
20
785.414500
11
392.493462
21
783.812716
0
LINE
8
Layer 1
10
392.493462
20
783.812716
11
392.320399
21
782.249353
0
LINE
8
Layer 1
10
392.320399
20
782.249353
11
392.270330
21
779.281495
0
LINE
8
Layer 1
10
392.270330
20
779.281495
11
392.272130
21
779.255125
0
LINE
8
Layer 1
10
392.272130
20
779.255125
11
392.453067
21
776.448097
0
LINE
8
Layer 1
10
392.453067
20
776.448097
11
392.787242
21
773.687186
0
LINE
8
Layer 1
10
392.787242
20
773.687186
11
393.787361
21
768.309226
0
LINE
8
Layer 1
10
393.787361
20
768.309226
11
393.790961
21
768.296896
0
LINE
8
Layer 1
10
393.790961
20
768.296896
11
394.775756
21
764.292989
0
LINE
8
Layer 1
10
394.775756
20
764.292989
11
395.924799
21
760.335999
0
LINE
8
Layer 1
10
395.924799
20
760.335999
11
397.232118
21
756.431184
0
LINE
8
Layer 1
10
397.232118
20
756.431184
11
398.691740
21
752.583805
0
LINE
8
Layer 1
10
398.691740
20
752.583805
11
398.695340
21
752.573275
0
LINE
8
Layer 1
10
398.695340
20
752.573275
11
401.174013
21
746.994592
0
LINE
8
Layer 1
10
401.174013
20
746.994592
11
402.598428
21
744.253257
0
LINE
8
Layer 1
10
402.598428
20
744.253257
11
404.176196
21
741.567616
0
LINE
8
Layer 1
10
404.176196
20
741.567616
11
404.188526
21
741.550066
0
LINE
8
Layer 1
10
404.188526
20
741.550066
11
406.251095
21
738.582058
0
LINE
8
Layer 1
10
406.251095
20
738.582058
11
407.460201
21
737.134251
0
LINE
8
Layer 1
10
407.460201
20
737.134251
11
408.823877
21
735.752797
0
LINE
8
Layer 1
10
408.823877
20
735.752797
11
408.843227
21
735.735247
0
LINE
8
Layer 1
10
408.843227
20
735.735247
11
410.585039
21
734.361604
0
LINE
8
Layer 1
10
410.585039
20
734.361604
11
411.637870
21
733.750836
0
LINE
8
Layer 1
10
411.637870
20
733.750836
11
412.831703
21
733.249699
0
LINE
8
Layer 1
10
412.831703
20
733.249699
11
414.012930
21
733.097025
0
LINE
8
Layer 1
10
414.012930
20
733.097025
11
415.122533
21
733.398608
0
LINE
8
Layer 1
10
415.122533
20
733.398608
11
416.038138
21
734.094193
0
LINE
8
Layer 1
10
416.038138
20
734.094193
11
416.637371
21
735.123526
0
LINE
8
Layer 1
10
416.637371
20
735.123526
11
416.791313
21
736.284218
0
LINE
8
Layer 1
10
416.791313
20
736.284218
11
416.489239
21
737.415437
0
LINE
8
Layer 1
10
416.489239
20
737.415437
11
415.777161
21
738.344872
0
LINE
8
Layer 1
10
415.777161
20
738.344872
11
414.763544
21
738.930949
0
LINE
8
Layer 1
10
414.763544
20
738.930949
11
413.888580
21
739.382239
0
LINE
8
Layer 1
10
413.888580
20
739.382239
11
412.884434
21
740.173723
0
LINE
8
Layer 1
10
412.884434
20
740.173723
11
410.990094
21
742.271087
0
LINE
8
Layer 1
10
410.990094
20
742.271087
11
409.252799
21
744.768646
0
LINE
8
Layer 1
10
409.252799
20
744.768646
11
409.249199
21
744.772246
0
LINE
8
Layer 1
10
409.249199
20
744.772246
11
407.846972
21
747.162395
0
LINE
8
Layer 1
10
407.846972
20
747.162395
11
406.558991
21
749.643594
0
LINE
8
Layer 1
10
406.558991
20
749.643594
11
404.258771
21
754.821655
0
LINE
8
Layer 1
10
404.258771
20
754.821655
11
404.256971
21
754.827055
0
LINE
8
Layer 1
10
404.256971
20
754.827055
11
404.255171
21
754.830655
0
LINE
8
Layer 1
10
404.255171
20
754.830655
11
402.881256
21
758.453182
0
LINE
8
Layer 1
10
402.881256
20
758.453182
11
401.652298
21
762.124873
0
LINE
8
Layer 1
10
401.652298
20
762.124873
11
400.573411
21
765.840419
0
LINE
8
Layer 1
10
400.573411
20
765.840419
11
399.649709
21
769.594516
0
LINE
8
Layer 1
10
399.649709
20
769.594516
11
398.728229
21
774.542157
0
LINE
8
Layer 1
10
398.728229
20
774.542157
11
398.269820
21
779.427718
0
LINE
8
Layer 1
10
398.269820
20
779.427718
11
398.269820
21
779.431318
0
LINE
8
Layer 1
10
398.269820
20
779.431318
11
398.328944
21
781.425888
0
LINE
8
Layer 1
10
398.328944
20
781.425888
11
398.575685
21
783.236986
0
LINE
8
Layer 1
10
398.575685
20
783.236986
11
406.538570
21
790.716472
0
LINE
8
Layer 1
10
406.538570
20
790.716472
11
406.538570
21
790.718272
0
LINE
8
Layer 1
10
406.538570
20
790.718272
11
411.358955
21
795.298678
0
LINE
8
Layer 1
10
411.358955
20
795.298678
11
416.115524
21
800.008493
0
LINE
8
Layer 1
10
416.115524
20
800.008493
11
420.732152
21
804.908938
0
LINE
8
Layer 1
10
420.732152
20
804.908938
11
425.132714
21
810.061234
0
LINE
8
Layer 1
10
425.132714
20
810.061234
11
425.134514
21
810.063034
0
LINE
8
Layer 1
10
425.134514
20
810.063034
11
428.185609
21
814.049321
0
LINE
8
Layer 1
10
428.185609
20
814.049321
11
431.026274
21
818.210209
0
LINE
8
Layer 1
10
431.026274
20
818.210209
11
433.619302
21
822.548340
0
LINE
8
Layer 1
10
433.619302
20
822.548340
11
435.927485
21
827.066356
0
LINE
8
Layer 1
10
435.927485
20
827.066356
11
435.934685
21
827.083906
0
LINE
8
Layer 1
10
435.934685
20
827.083906
11
437.637937
21
831.014262
0
LINE
8
Layer 1
10
437.637937
20
831.014262
11
439.061834
21
835.238392
0
LINE
8
Layer 1
10
439.061834
20
835.238392
11
439.141886
21
836.406424
0
LINE
8
Layer 1
10
439.141886
20
836.406424
11
438.768770
21
837.516151
0
LINE
8
Layer 1
10
438.768770
20
837.516151
11
437.999313
21
838.398559
0
LINE
8
Layer 1
10
437.999313
20
838.398559
11
436.950704
21
838.919257
0
LINE
8
Layer 1
10
436.950704
20
838.919257
11
436.950488
21
838.918915
0
LINE
8
Layer 1
10
659.695214
20
833.163838
11
658.564725
21
832.859989
0
LINE
8
Layer 1
10
658.564725
20
832.859989
11
657.636584
21
832.146628
0
LINE
8
Layer 1
10
657.636584
20
832.146628
11
657.052109
21
831.132370
0
LINE
8
Layer 1
10
657.052109
20
831.132370
11
656.900291
21
829.971646
0
LINE
8
Layer 1
10
656.900291
20
829.971646
11
657.255477
21
821.934565
0
LINE
8
Layer 1
10
657.255477
20
821.934565
11
657.262397
21
813.885901
0
LINE
8
Layer 1
10
657.262397
20
813.885901
11
657.049677
21
807.937542
0
LINE
8
Layer 1
10
657.049677
20
807.937542
11
656.655871
21
801.997070
0
LINE
8
Layer 1
10
656.655871
20
801.997070
11
656.086240
21
796.068534
0
LINE
8
Layer 1
10
656.086240
20
796.068534
11
655.346046
21
790.155985
0
LINE
8
Layer 1
10
655.346046
20
790.155985
11
654.440550
21
784.263471
0
LINE
8
Layer 1
10
654.440550
20
784.263471
11
653.375013
21
778.395044
0
LINE
8
Layer 1
10
653.375013
20
778.395044
11
652.154697
21
772.554752
0
LINE
8
Layer 1
10
652.154697
20
772.554752
11
650.784863
21
766.746646
0
LINE
8
Layer 1
10
650.784863
20
766.746646
11
649.042073
21
760.143627
0
LINE
8
Layer 1
10
649.042073
20
760.143627
11
647.120482
21
753.588767
0
LINE
8
Layer 1
10
647.120482
20
753.588767
11
645.027238
21
747.083885
0
LINE
8
Layer 1
10
645.027238
20
747.083885
11
642.769490
21
740.630800
0
LINE
8
Layer 1
10
642.769490
20
740.630800
11
640.354386
21
734.231332
0
LINE
8
Layer 1
10
640.354386
20
734.231332
11
637.789074
21
727.887300
0
LINE
8
Layer 1
10
637.789074
20
727.887300
11
635.080703
21
721.600522
0
LINE
8
Layer 1
10
635.080703
20
721.600522
11
632.236421
21
715.372819
0
LINE
8
Layer 1
10
632.236421
20
715.372819
11
631.954559
21
714.236357
0
LINE
8
Layer 1
10
631.954559
20
714.236357
11
632.129196
21
713.078560
0
LINE
8
Layer 1
10
632.129196
20
713.078560
11
632.733730
21
712.075798
0
LINE
8
Layer 1
10
632.733730
20
712.075798
11
633.676070
21
711.380824
0
LINE
8
Layer 1
10
633.676070
20
711.380824
11
634.833341
21
711.098196
0
LINE
8
Layer 1
10
634.833341
20
711.098196
11
635.969713
21
711.275135
0
LINE
8
Layer 1
10
635.969713
20
711.275135
11
636.956823
21
711.865272
0
LINE
8
Layer 1
10
636.956823
20
711.865272
11
637.666310
21
712.822237
0
LINE
8
Layer 1
10
637.666310
20
712.822237
11
640.563587
21
719.165843
0
LINE
8
Layer 1
10
640.563587
20
719.165843
11
643.324612
21
725.574488
0
LINE
8
Layer 1
10
643.324612
20
725.574488
11
645.941838
21
732.046462
0
LINE
8
Layer 1
10
645.941838
20
732.046462
11
648.407714
21
738.580056
0
LINE
8
Layer 1
10
648.407714
20
738.580056
11
650.714692
21
745.173561
0
LINE
8
Layer 1
10
650.714692
20
745.173561
11
652.855221
21
751.825267
0
LINE
8
Layer 1
10
652.855221
20
751.825267
11
654.821753
21
758.533466
0
LINE
8
Layer 1
10
654.821753
20
758.533466
11
656.606738
21
765.296449
0
LINE
8
Layer 1
10
656.606738
20
765.296449
11
658.011387
21
771.251849
0
LINE
8
Layer 1
10
658.011387
20
771.251849
11
659.263750
21
777.244633
0
LINE
8
Layer 1
10
659.263750
20
777.244633
11
660.358147
21
783.270811
0
LINE
8
Layer 1
10
660.358147
20
783.270811
11
661.288897
21
789.326389
0
LINE
8
Layer 1
10
661.288897
20
789.326389
11
662.050319
21
795.407376
0
LINE
8
Layer 1
10
662.050319
20
795.407376
11
662.636734
21
801.509778
0
LINE
8
Layer 1
10
662.636734
20
801.509778
11
663.042459
21
807.629605
0
LINE
8
Layer 1
10
663.042459
20
807.629605
11
663.261815
21
813.762862
0
LINE
8
Layer 1
10
663.261815
20
813.762862
11
663.261815
21
813.764662
0
LINE
8
Layer 1
10
663.261815
20
813.764662
11
663.254264
21
822.069042
0
LINE
8
Layer 1
10
663.254264
20
822.069042
11
662.887397
21
830.368960
0
LINE
8
Layer 1
10
662.887397
20
830.368960
11
662.583549
21
831.499447
0
LINE
8
Layer 1
10
662.583549
20
831.499447
11
661.870190
21
832.427587
0
LINE
8
Layer 1
10
661.870190
20
832.427587
11
660.855936
21
833.012062
0
LINE
8
Layer 1
10
660.855936
20
833.012062
11
659.695214
21
833.163883
0
LINE
8
Layer 1
10
659.695214
20
833.163883
11
659.695214
21
833.163838
0
LINE
8
Layer 1
10
512.828219
20
827.227699
11
507.370151
21
827.093928
0
LINE
8
Layer 1
10
507.370151
20
827.093928
11
501.934726
21
826.453457
0
LINE
8
Layer 1
10
501.934726
20
826.453457
11
496.575932
21
825.284288
0
LINE
8
Layer 1
10
496.575932
20
825.284288
11
491.347757
21
823.564420
0
LINE
8
Layer 1
10
491.347757
20
823.564420
11
487.185844
21
821.717215
0
LINE
8
Layer 1
10
487.185844
20
821.717215
11
483.210570
21
819.471784
0
LINE
8
Layer 1
10
483.210570
20
819.471784
11
479.472298
21
816.830190
0
LINE
8
Layer 1
10
479.472298
20
816.830190
11
476.021387
21
813.794497
0
LINE
8
Layer 1
10
476.021387
20
813.794497
11
475.361893
21
812.827047
0
LINE
8
Layer 1
10
475.361893
20
812.827047
11
475.122948
21
811.680836
0
LINE
8
Layer 1
10
475.122948
20
811.680836
11
475.340948
21
810.530459
0
LINE
8
Layer 1
10
475.340948
20
810.530459
11
475.982687
21
809.551141
0
LINE
8
Layer 1
10
475.982687
20
809.551141
11
476.950414
21
808.892063
0
LINE
8
Layer 1
10
476.950414
20
808.892063
11
478.096721
21
808.653607
0
LINE
8
Layer 1
10
478.096721
20
808.653607
11
479.247000
21
808.872092
0
LINE
8
Layer 1
10
479.247000
20
808.872092
11
480.226043
21
809.514241
0
LINE
8
Layer 1
10
480.226043
20
809.514241
11
483.186850
21
812.117253
0
LINE
8
Layer 1
10
483.186850
20
812.117253
11
486.420072
21
814.400881
0
LINE
8
Layer 1
10
486.420072
20
814.400881
11
489.880304
21
816.355838
0
LINE
8
Layer 1
10
489.880304
20
816.355838
11
493.522139
21
817.972837
0
LINE
8
Layer 1
10
493.522139
20
817.972837
11
493.523939
21
817.972837
0
LINE
8
Layer 1
10
493.523939
20
817.972837
11
498.149760
21
819.493261
0
LINE
8
Layer 1
10
498.149760
20
819.493261
11
502.923171
21
820.533595
0
LINE
8
Layer 1
10
502.923171
20
820.533595
11
507.791840
21
821.107417
0
LINE
8
Layer 1
10
507.791840
20
821.107417
11
512.703434
21
821.228308
0
LINE
8
Layer 1
10
512.703434
20
821.228308
11
517.969237
21
820.864296
0
LINE
8
Layer 1
10
517.969237
20
820.864296
11
523.173070
21
820.000149
0
LINE
8
Layer 1
10
523.173070
20
820.000149
11
528.260834
21
818.636507
0
LINE
8
Layer 1
10
528.260834
20
818.636507
11
533.178434
21
816.774010
0
LINE
8
Layer 1
10
533.178434
20
816.774010
11
537.052025
21
814.860931
0
LINE
8
Layer 1
10
537.052025
20
814.860931
11
540.718577
21
812.604784
0
LINE
8
Layer 1
10
540.718577
20
812.604784
11
544.126727
21
810.010544
0
LINE
8
Layer 1
10
544.126727
20
810.010544
11
547.225112
21
807.083188
0
LINE
8
Layer 1
10
547.225112
20
807.083188
11
547.228712
21
807.079588
0
LINE
8
Layer 1
10
547.228712
20
807.079588
11
549.493826
21
804.447114
0
LINE
8
Layer 1
10
549.493826
20
804.447114
11
551.487280
21
801.608881
0
LINE
8
Layer 1
10
551.487280
20
801.608881
11
553.182212
21
798.592867
0
LINE
8
Layer 1
10
553.182212
20
798.592867
11
554.551760
21
795.427054
0
LINE
8
Layer 1
10
554.551760
20
795.427054
11
554.553560
21
795.419854
0
LINE
8
Layer 1
10
554.553560
20
795.419854
11
555.545355
21
792.296762
0
LINE
8
Layer 1
10
555.545355
20
792.296762
11
556.233759
21
789.079466
0
LINE
8
Layer 1
10
556.233759
20
789.079466
11
556.624788
21
785.799747
0
LINE
8
Layer 1
10
556.624788
20
785.799747
11
556.724459
21
782.489383
0
LINE
8
Layer 1
10
556.724459
20
782.489383
11
556.724459
21
782.433133
0
LINE
8
Layer 1
10
556.724459
20
782.433133
11
556.630649
21
779.633618
0
LINE
8
Layer 1
10
556.630649
20
779.633618
11
556.315230
21
776.857859
0
LINE
8
Layer 1
10
556.315230
20
776.857859
11
555.774201
21
774.127111
0
LINE
8
Layer 1
10
555.774201
20
774.127111
11
555.003560
21
771.462628
0
LINE
8
Layer 1
10
555.003560
20
771.462628
11
554.852623
21
770.301834
0
LINE
8
Layer 1
10
554.852623
20
770.301834
11
555.157401
21
769.171641
0
LINE
8
Layer 1
10
555.157401
20
769.171641
11
555.871493
21
768.244119
0
LINE
8
Layer 1
10
555.871493
20
768.244119
11
556.886180
21
767.660479
0
LINE
8
Layer 1
10
556.886180
20
767.660479
11
558.067673
21
767.510006
0
LINE
8
Layer 1
10
558.067673
20
767.510006
11
559.176700
21
767.813643
0
LINE
8
Layer 1
10
559.176700
20
767.813643
11
560.091004
21
768.510912
0
LINE
8
Layer 1
10
560.091004
20
768.510912
11
560.688329
21
769.541335
0
LINE
8
Layer 1
10
560.688329
20
769.541335
11
561.602874
21
772.701230
0
LINE
8
Layer 1
10
561.602874
20
772.701230
11
562.240702
21
775.916695
0
LINE
8
Layer 1
10
562.240702
20
775.916695
11
562.610789
21
779.165673
0
LINE
8
Layer 1
10
562.610789
20
779.165673
11
562.722113
21
782.426104
0
LINE
8
Layer 1
10
562.722113
20
782.426104
11
562.606499
21
786.253712
0
LINE
8
Layer 1
10
562.606499
20
786.253712
11
562.152289
21
790.066115
0
LINE
8
Layer 1
10
562.152289
20
790.066115
11
561.346665
21
793.830338
0
LINE
8
Layer 1
10
561.346665
20
793.830338
11
560.176805
21
797.513407
0
LINE
8
Layer 1
10
560.176805
20
797.513407
11
558.557779
21
801.259211
0
LINE
8
Layer 1
10
558.557779
20
801.259211
11
556.565496
21
804.807138
0
LINE
8
Layer 1
10
556.565496
20
804.807138
11
554.230820
21
808.131538
0
LINE
8
Layer 1
10
554.230820
20
808.131538
11
551.584613
21
811.206763
0
LINE
8
Layer 1
10
551.584613
20
811.206763
11
551.581013
21
811.210363
0
LINE
8
Layer 1
10
551.581013
20
811.210363
11
548.005130
21
814.590304
0
LINE
8
Layer 1
10
548.005130
20
814.590304
11
544.109260
21
817.556889
0
LINE
8
Layer 1
10
544.109260
20
817.556889
11
539.952000
21
820.114369
0
LINE
8
Layer 1
10
539.952000
20
820.114369
11
535.591946
21
822.266998
0
LINE
8
Layer 1
10
535.591946
20
822.266998
11
535.590146
21
822.268798
0
LINE
8
Layer 1
10
535.590146
20
822.268798
11
532.870719
21
823.379177
0
LINE
8
Layer 1
10
532.870719
20
823.379177
11
530.101654
21
824.348603
0
LINE
8
Layer 1
10
530.101654
20
824.348603
11
524.442245
21
825.866196
0
LINE
8
Layer 1
10
524.442245
20
825.866196
11
518.667187
21
826.824786
0
LINE
8
Layer 1
10
518.667187
20
826.824786
11
512.831747
21
827.227582
0
LINE
8
Layer 1
10
512.831747
20
827.227582
11
512.828147
21
827.227582
0
LINE
8
Layer 1
10
512.828147
20
827.227582
11
512.828219
21
827.227699
0
LINE
8
Layer 1
10
191.333108
20
824.119891
11
190.164369
21
824.191146
0
LINE
8
Layer 1
10
190.164369
20
824.191146
11
189.057374
21
823.809582
0
LINE
8
Layer 1
10
189.057374
20
823.809582
11
188.180759
21
823.033325
0
LINE
8
Layer 1
10
188.180759
20
823.033325
11
187.668065
21
821.980627
0
LINE
8
Layer 1
10
187.668065
20
821.980627
11
185.233835
21
812.209395
0
LINE
8
Layer 1
10
185.233835
20
812.209395
11
183.052134
21
802.380563
0
LINE
8
Layer 1
10
183.052134
20
802.380563
11
181.120544
21
792.500706
0
LINE
8
Layer 1
10
181.120544
20
792.500706
11
179.436646
21
782.576398
0
LINE
8
Layer 1
10
179.436646
20
782.576398
11
177.998020
21
772.614216
0
LINE
8
Layer 1
10
177.998020
20
772.614216
11
176.802248
21
762.620735
0
LINE
8
Layer 1
10
176.802248
20
762.620735
11
175.846910
21
752.602530
0
LINE
8
Layer 1
10
175.846910
20
752.602530
11
175.129589
21
742.566175
0
LINE
8
Layer 1
10
175.129589
20
742.566175
11
174.688958
21
733.542994
0
LINE
8
Layer 1
10
174.688958
20
733.542994
11
174.439565
21
724.512789
0
LINE
8
Layer 1
10
174.439565
20
724.512789
11
174.380935
21
715.479395
0
LINE
8
Layer 1
10
174.380935
20
715.479395
11
174.512594
21
706.446646
0
LINE
8
Layer 1
10
174.512594
20
706.446646
11
174.510794
21
706.552117
0
LINE
8
Layer 1
10
174.510794
20
706.552117
11
174.491444
21
702.335122
0
LINE
8
Layer 1
10
174.491444
20
702.335122
11
174.728964
21
701.167898
0
LINE
8
Layer 1
10
174.728964
20
701.167898
11
175.373231
21
700.215384
0
LINE
8
Layer 1
10
175.373231
20
700.215384
11
176.327630
21
699.573912
0
LINE
8
Layer 1
10
176.327630
20
699.573912
11
177.495545
21
699.339814
0
LINE
8
Layer 1
10
177.495545
20
699.339814
11
178.643508
21
699.570081
0
LINE
8
Layer 1
10
178.643508
20
699.570081
11
179.615904
21
700.222222
0
LINE
8
Layer 1
10
179.615904
20
700.222222
11
180.264623
21
701.196905
0
LINE
8
Layer 1
10
180.264623
20
701.196905
11
180.490853
21
702.345670
0
LINE
8
Layer 1
10
180.490853
20
702.345670
11
180.510203
21
706.490593
0
LINE
8
Layer 1
10
180.510203
20
706.490593
11
180.510203
21
706.596064
0
LINE
8
Layer 1
10
180.510203
20
706.596064
11
180.380640
21
715.502372
0
LINE
8
Layer 1
10
180.380640
20
715.502372
11
180.439011
21
724.409312
0
LINE
8
Layer 1
10
180.439011
20
724.409312
11
180.685467
21
733.312947
0
LINE
8
Layer 1
10
180.685467
20
733.312947
11
181.120160
21
742.209343
0
LINE
8
Layer 1
10
181.120160
20
742.209343
11
181.827346
21
752.104560
0
LINE
8
Layer 1
10
181.827346
20
752.104560
11
182.768950
21
761.980141
0
LINE
8
Layer 1
10
182.768950
20
761.980141
11
183.947280
21
771.829542
0
LINE
8
Layer 1
10
183.947280
20
771.829542
11
185.364641
21
781.646220
0
LINE
8
Layer 1
10
185.364641
20
781.646220
11
187.023342
21
791.423633
0
LINE
8
Layer 1
10
187.023342
20
791.423633
11
188.925690
21
801.155238
0
LINE
8
Layer 1
10
188.925690
20
801.155238
11
191.073991
21
810.834490
0
LINE
8
Layer 1
10
191.073991
20
810.834490
11
193.470554
21
820.454848
0
LINE
8
Layer 1
10
193.470554
20
820.454848
11
193.542027
21
821.623265
0
LINE
8
Layer 1
10
193.542027
20
821.623265
11
193.160902
21
822.730085
0
LINE
8
Layer 1
10
193.160902
20
822.730085
11
192.385210
21
823.606789
0
LINE
8
Layer 1
10
192.385210
20
823.606789
11
191.333054
21
824.119891
0
LINE
8
Layer 1
10
191.333054
20
824.119891
11
191.333108
21
824.119891
0
LINE
8
Layer 1
10
511.501070
20
811.208752
11
508.027627
21
810.852735
0
LINE
8
Layer 1
10
508.027627
20
810.852735
11
504.590193
21
810.162909
0
LINE
8
Layer 1
10
504.590193
20
810.162909
11
501.226607
21
809.125009
0
LINE
8
Layer 1
10
501.226607
20
809.125009
11
497.974709
21
807.724771
0
LINE
8
Layer 1
10
497.974709
20
807.724771
11
497.972909
21
807.724771
0
LINE
8
Layer 1
10
497.972909
20
807.724771
11
494.950881
21
806.016246
0
LINE
8
Layer 1
10
494.950881
20
806.016246
11
492.140439
21
804.000097
0
LINE
8
Layer 1
10
492.140439
20
804.000097
11
489.560735
21
801.707467
0
LINE
8
Layer 1
10
489.560735
20
801.707467
11
487.230923
21
799.169497
0
LINE
8
Layer 1
10
487.230923
20
799.169497
11
485.493230
21
796.905925
0
LINE
8
Layer 1
10
485.493230
20
796.905925
11
483.939202
21
794.527417
0
LINE
8
Layer 1
10
483.939202
20
794.527417
11
482.565457
21
792.052079
0
LINE
8
Layer 1
10
482.565457
20
792.052079
11
481.368611
21
789.498016
0
LINE
8
Layer 1
10
481.368611
20
789.498016
11
481.125182
21
788.331925
0
LINE
8
Layer 1
10
481.125182
20
788.331925
11
481.340313
21
787.202211
0
LINE
8
Layer 1
10
481.340313
20
787.202211
11
481.963343
21
786.235583
0
LINE
8
Layer 1
10
481.963343
20
786.235583
11
482.943611
21
785.558752
0
LINE
8
Layer 1
10
482.943611
20
785.558752
11
484.109702
21
785.315323
0
LINE
8
Layer 1
10
484.109702
20
785.315323
11
485.239416
21
785.530454
0
LINE
8
Layer 1
10
485.239416
20
785.530454
11
486.206044
21
786.153484
0
LINE
8
Layer 1
10
486.206044
20
786.153484
11
486.882875
21
787.133752
0
LINE
8
Layer 1
10
486.882875
20
787.133752
11
487.909917
21
789.325295
0
LINE
8
Layer 1
10
487.909917
20
789.325295
11
489.079717
21
791.433236
0
LINE
8
Layer 1
10
489.079717
20
791.433236
11
490.391671
21
793.441926
0
LINE
8
Layer 1
10
490.391671
20
793.441926
11
491.845178
21
795.335713
0
LINE
8
Layer 1
10
491.845178
20
795.335713
11
491.848778
21
795.339313
0
LINE
8
Layer 1
10
491.848778
20
795.339313
11
493.770044
21
797.431318
0
LINE
8
Layer 1
10
493.770044
20
797.431318
11
495.889518
21
799.314338
0
LINE
8
Layer 1
10
495.889518
20
799.314338
11
498.185007
21
800.961946
0
LINE
8
Layer 1
10
498.185007
20
800.961946
11
500.634317
21
802.347712
0
LINE
8
Layer 1
10
500.634317
20
802.347712
11
500.643317
21
802.351312
0
LINE
8
Layer 1
10
500.643317
20
802.351312
11
503.292673
21
803.491511
0
LINE
8
Layer 1
10
503.292673
20
803.491511
11
506.066463
21
804.346676
0
LINE
8
Layer 1
10
506.066463
20
804.346676
11
508.929754
21
804.921347
0
LINE
8
Layer 1
10
508.929754
20
804.921347
11
511.847615
21
805.220062
0
LINE
8
Layer 1
10
511.847615
20
805.220062
11
511.863455
21
805.220062
0
LINE
8
Layer 1
10
511.863455
20
805.220062
11
515.723094
21
805.169943
0
LINE
8
Layer 1
10
515.723094
20
805.169943
11
519.569705
21
804.580216
0
LINE
8
Layer 1
10
519.569705
20
804.580216
11
519.571505
21
804.580216
0
LINE
8
Layer 1
10
519.571505
20
804.580216
11
521.898491
21
803.929656
0
LINE
8
Layer 1
10
521.898491
20
803.929656
11
524.136626
21
803.045175
0
LINE
8
Layer 1
10
524.136626
20
803.045175
11
526.253870
21
801.932413
0
LINE
8
Layer 1
10
526.253870
20
801.932413
11
528.218183
21
800.597014
0
LINE
8
Layer 1
10
528.218183
20
800.597014
11
528.227183
21
800.591614
0
LINE
8
Layer 1
10
528.227183
20
800.591614
11
530.096755
21
798.973942
0
LINE
8
Layer 1
10
530.096755
20
798.973942
11
531.776674
21
797.137066
0
LINE
8
Layer 1
10
531.776674
20
797.137066
11
533.252012
21
795.113646
0
LINE
8
Layer 1
10
533.252012
20
795.113646
11
534.507842
21
792.936340
0
LINE
8
Layer 1
10
534.507842
20
792.936340
11
534.509642
21
792.936340
0
LINE
8
Layer 1
10
534.509642
20
792.936340
11
535.796361
21
789.969782
0
LINE
8
Layer 1
10
535.796361
20
789.969782
11
536.727377
21
786.855643
0
LINE
8
Layer 1
10
536.727377
20
786.855643
11
537.303188
21
783.642400
0
LINE
8
Layer 1
10
537.303188
20
783.642400
11
537.524291
21
780.378532
0
LINE
8
Layer 1
10
537.524291
20
780.378532
11
537.524291
21
780.374932
0
LINE
8
Layer 1
10
537.524291
20
780.374932
11
537.455431
21
778.012930
0
LINE
8
Layer 1
10
537.455431
20
778.012930
11
537.192056
21
775.684190
0
LINE
8
Layer 1
10
537.192056
20
775.684190
11
536.723900
21
773.412590
0
LINE
8
Layer 1
10
536.723900
20
773.412590
11
536.040695
21
771.222004
0
LINE
8
Layer 1
10
536.040695
20
771.222004
11
536.040695
21
771.218404
0
LINE
8
Layer 1
10
536.040695
20
771.218404
11
535.394221
21
769.697529
0
LINE
8
Layer 1
10
535.394221
20
769.697529
11
534.625822
21
768.280328
0
LINE
8
Layer 1
10
534.625822
20
768.280328
11
533.734733
21
766.994470
0
LINE
8
Layer 1
10
533.734733
20
766.994470
11
532.720190
21
765.867625
0
LINE
8
Layer 1
10
532.720190
20
765.867625
11
532.714790
21
765.862225
0
LINE
8
Layer 1
10
532.714790
20
765.862225
11
530.942448
21
764.540878
0
LINE
8
Layer 1
10
530.942448
20
764.540878
11
529.968342
21
764.082403
0
LINE
8
Layer 1
10
529.968342
20
764.082403
11
528.965372
21
763.779220
0
LINE
8
Layer 1
10
528.965372
20
763.779220
11
528.946022
21
763.773820
0
LINE
8
Layer 1
10
528.946022
20
763.773820
11
527.817641
21
763.614491
0
LINE
8
Layer 1
10
527.817641
20
763.614491
11
526.632011
21
763.621966
0
LINE
8
Layer 1
10
526.632011
20
763.621966
11
524.191133
21
764.102527
0
LINE
8
Layer 1
10
524.191133
20
764.102527
11
524.189333
21
764.104327
0
LINE
8
Layer 1
10
524.189333
20
764.104327
11
522.570461
21
764.724983
0
LINE
8
Layer 1
10
522.570461
20
764.724983
11
520.980661
21
765.533588
0
LINE
8
Layer 1
10
520.980661
20
765.533588
11
517.899881
21
767.607649
0
LINE
8
Layer 1
10
517.899881
20
767.607649
11
516.851794
21
768.128897
0
LINE
8
Layer 1
10
516.851794
20
768.128897
11
515.684014
21
768.209378
0
LINE
8
Layer 1
10
515.684014
20
768.209378
11
514.574329
21
767.836840
0
LINE
8
Layer 1
10
514.574329
20
767.836840
11
513.691679
21
767.068000
0
LINE
8
Layer 1
10
513.691679
20
767.068000
11
513.170431
21
766.019913
0
LINE
8
Layer 1
10
513.170431
20
766.019913
11
513.089950
21
764.852133
0
LINE
8
Layer 1
10
513.089950
20
764.852133
11
513.462488
21
763.742448
0
LINE
8
Layer 1
10
513.462488
20
763.742448
11
514.231328
21
762.859798
0
LINE
8
Layer 1
10
514.231328
20
762.859798
11
516.061051
21
761.531090
0
LINE
8
Layer 1
10
516.061051
20
761.531090
11
518.022568
21
760.308754
0
LINE
8
Layer 1
10
518.022568
20
760.308754
11
520.124449
21
759.243094
0
LINE
8
Layer 1
10
520.124449
20
759.243094
11
522.375266
21
758.384413
0
LINE
8
Layer 1
10
522.375266
20
758.384413
11
524.249072
21
757.899894
0
LINE
8
Layer 1
10
524.249072
20
757.899894
11
526.203994
21
757.632869
0
LINE
8
Layer 1
10
526.203994
20
757.632869
11
528.213743
21
757.625161
0
LINE
8
Layer 1
10
528.213743
20
757.625161
11
530.252030
21
757.918591
0
LINE
8
Layer 1
10
530.252030
20
757.918591
11
532.120996
21
758.478551
0
LINE
8
Layer 1
10
532.120996
20
758.478551
11
533.859642
21
759.292121
0
LINE
8
Layer 1
10
533.859642
20
759.292121
11
535.452977
21
760.326397
0
LINE
8
Layer 1
10
535.452977
20
760.326397
11
536.886011
21
761.548471
0
LINE
8
Layer 1
10
536.886011
20
761.548471
11
536.887811
21
761.550271
0
LINE
8
Layer 1
10
536.887811
20
761.550271
11
538.447863
21
763.275947
0
LINE
8
Layer 1
10
538.447863
20
763.275947
11
539.746501
21
765.143964
0
LINE
8
Layer 1
10
539.746501
20
765.143964
11
540.809791
21
767.108739
0
LINE
8
Layer 1
10
540.809791
20
767.108739
11
541.663796
21
769.124689
0
LINE
8
Layer 1
10
541.663796
20
769.124689
11
541.667396
21
769.131889
0
LINE
8
Layer 1
10
541.667396
20
769.131889
11
542.537390
21
771.916465
0
LINE
8
Layer 1
10
542.537390
20
771.916465
11
543.121272
21
774.748381
0
LINE
8
Layer 1
10
543.121272
20
774.748381
11
543.442278
21
777.601250
0
LINE
8
Layer 1
10
543.442278
20
777.601250
11
543.523646
21
780.448687
0
LINE
8
Layer 1
10
543.523646
20
780.448687
11
543.523646
21
780.455887
0
LINE
8
Layer 1
10
543.523646
20
780.455887
11
543.259582
21
784.371689
0
LINE
8
Layer 1
10
543.259582
20
784.371689
11
542.565941
21
788.244226
0
LINE
8
Layer 1
10
542.565941
20
788.244226
11
541.434014
21
792.022986
0
LINE
8
Layer 1
10
541.434014
20
792.022986
11
539.855093
21
795.657454
0
LINE
8
Layer 1
10
539.855093
20
795.657454
11
539.856893
21
795.657454
0
LINE
8
Layer 1
10
539.856893
20
795.657454
11
538.286218
21
798.381914
0
LINE
8
Layer 1
10
538.286218
20
798.381914
11
536.427209
21
800.931649
0
LINE
8
Layer 1
10
536.427209
20
800.931649
11
534.288366
21
803.267868
0
LINE
8
Layer 1
10
534.288366
20
803.267868
11
531.878186
21
805.351786
0
LINE
8
Layer 1
10
531.878186
20
805.351786
11
531.874586
21
805.353586
0
LINE
8
Layer 1
10
531.874586
20
805.353586
11
529.335738
21
807.081169
0
LINE
8
Layer 1
10
529.335738
20
807.081169
11
526.634193
21
808.502211
0
LINE
8
Layer 1
10
526.634193
20
808.502211
11
523.806263
21
809.618960
0
LINE
8
Layer 1
10
523.806263
20
809.618960
11
520.888259
21
810.433663
0
LINE
8
Layer 1
10
520.888259
20
810.433663
11
520.881059
21
810.435463
0
LINE
8
Layer 1
10
520.881059
20
810.435463
11
518.573655
21
810.869627
0
LINE
8
Layer 1
10
518.573655
20
810.869627
11
516.235099
21
811.148474
0
LINE
8
Layer 1
10
516.235099
20
811.148474
11
513.875480
21
811.264174
0
LINE
8
Layer 1
10
513.875480
20
811.264174
11
511.504886
21
811.208896
0
LINE
8
Layer 1
10
511.504886
20
811.208896
11
511.501070
21
811.208752
0
LINE
8
Layer 1
10
590.273921
20
802.519891
11
589.170073
21
802.128927
0
LINE
8
Layer 1
10
589.170073
20
802.128927
11
588.299998
21
801.345152
0
LINE
8
Layer 1
10
588.299998
20
801.345152
11
587.796270
21
800.287990
0
LINE
8
Layer 1
10
587.796270
20
800.287990
11
587.735642
21
799.118521
0
LINE
8
Layer 1
10
587.735642
20
799.118521
11
588.168283
21
795.282702
0
LINE
8
Layer 1
10
588.168283
20
795.282702
11
588.357911
21
791.422819
0
LINE
8
Layer 1
10
588.357911
20
791.422819
11
588.382481
21
791.088838
0
LINE
8
Layer 1
10
588.382481
20
791.088838
11
588.923686
21
785.002025
0
LINE
8
Layer 1
10
588.923686
20
785.002025
11
588.977268
21
778.881895
0
LINE
8
Layer 1
10
588.977268
20
778.881895
11
588.561192
21
772.765625
0
LINE
8
Layer 1
10
588.561192
20
772.765625
11
587.693423
21
766.690396
0
LINE
8
Layer 1
10
587.693423
20
766.690396
11
586.285602
21
760.319725
0
LINE
8
Layer 1
10
586.285602
20
760.319725
11
584.387563
21
754.082609
0
LINE
8
Layer 1
10
584.387563
20
754.082609
11
581.999242
21
748.025606
0
LINE
8
Layer 1
10
581.999242
20
748.025606
11
579.120572
21
742.195276
0
LINE
8
Layer 1
10
579.120572
20
742.195276
11
576.293745
21
737.476803
0
LINE
8
Layer 1
10
576.293745
20
737.476803
11
573.111173
21
733.006117
0
LINE
8
Layer 1
10
573.111173
20
733.006117
11
569.576757
21
728.831282
0
LINE
8
Layer 1
10
569.576757
20
728.831282
11
565.694399
21
725.000362
0
LINE
8
Layer 1
10
565.694399
20
725.000362
11
565.690799
21
724.998562
0
LINE
8
Layer 1
10
565.690799
20
724.998562
11
562.170588
21
722.085968
0
LINE
8
Layer 1
10
562.170588
20
722.085968
11
558.422549
21
719.484306
0
LINE
8
Layer 1
10
558.422549
20
719.484306
11
554.470890
21
717.223659
0
LINE
8
Layer 1
10
554.470890
20
717.223659
11
550.339823
21
715.334110
0
LINE
8
Layer 1
10
550.339823
20
715.334110
11
550.334423
21
715.332310
0
LINE
8
Layer 1
10
550.334423
20
715.332310
11
546.516034
21
713.972247
0
LINE
8
Layer 1
10
546.516034
20
713.972247
11
542.593734
21
712.928825
0
LINE
8
Layer 1
10
542.593734
20
712.928825
11
538.595490
21
712.202527
0
LINE
8
Layer 1
10
538.595490
20
712.202527
11
534.549269
21
711.793834
0
LINE
8
Layer 1
10
534.549269
20
711.793834
11
533.417320
21
711.495618
0
LINE
8
Layer 1
10
533.417320
20
711.495618
11
532.485665
21
710.786913
0
LINE
8
Layer 1
10
532.485665
20
710.786913
11
531.896149
21
709.775621
0
LINE
8
Layer 1
10
531.896149
20
709.775621
11
531.738524
21
708.615709
0
LINE
8
Layer 1
10
531.738524
20
708.615709
11
532.036740
21
707.483760
0
LINE
8
Layer 1
10
532.036740
20
707.483760
11
532.745445
21
706.552105
0
LINE
8
Layer 1
10
532.745445
20
706.552105
11
533.756737
21
705.962589
0
LINE
8
Layer 1
10
533.756737
20
705.962589
11
534.916649
21
705.804964
0
LINE
8
Layer 1
10
534.916649
20
705.804964
11
539.431146
21
706.260932
0
LINE
8
Layer 1
10
539.431146
20
706.260932
11
543.898637
21
707.072715
0
LINE
8
Layer 1
10
543.898637
20
707.072715
11
548.290320
21
708.241591
0
LINE
8
Layer 1
10
548.290320
20
708.241591
11
552.577394
21
709.768834
0
LINE
8
Layer 1
10
552.577394
20
709.768834
11
557.212073
21
711.887264
0
LINE
8
Layer 1
10
557.212073
20
711.887264
11
561.626248
21
714.410205
0
LINE
8
Layer 1
10
561.626248
20
714.410205
11
565.797589
21
717.304111
0
LINE
8
Layer 1
10
565.797589
20
717.304111
11
569.703764
21
720.535435
0
LINE
8
Layer 1
10
569.703764
20
720.535435
11
569.705564
21
720.537235
0
LINE
8
Layer 1
10
569.705564
20
720.537235
11
573.982384
21
724.756582
0
LINE
8
Layer 1
10
573.982384
20
724.756582
11
577.852577
21
729.327479
0
LINE
8
Layer 1
10
577.852577
20
729.327479
11
581.318257
21
734.196614
0
LINE
8
Layer 1
10
581.318257
20
734.196614
11
584.381540
21
739.310677
0
LINE
8
Layer 1
10
584.381540
20
739.310677
11
584.381540
21
739.312477
0
LINE
8
Layer 1
10
584.381540
20
739.312477
11
587.485815
21
745.597830
0
LINE
8
Layer 1
10
587.485815
20
745.597830
11
590.054903
21
752.110218
0
LINE
8
Layer 1
10
590.054903
20
752.110218
11
592.091802
21
758.801910
0
LINE
8
Layer 1
10
592.091802
20
758.801910
11
593.599511
21
765.625174
0
LINE
8
Layer 1
10
593.599511
20
765.625174
11
593.599511
21
765.626974
0
LINE
8
Layer 1
10
593.599511
20
765.626974
11
594.529185
21
772.134892
0
LINE
8
Layer 1
10
594.529185
20
772.134892
11
594.975864
21
778.702176
0
LINE
8
Layer 1
10
594.975864
20
778.702176
11
594.917618
21
785.291577
0
LINE
8
Layer 1
10
594.917618
20
785.291577
11
594.332516
21
791.865844
0
LINE
8
Layer 1
10
594.332516
20
791.865844
11
594.357086
21
791.530099
0
LINE
8
Layer 1
10
594.357086
20
791.530099
11
594.149033
21
795.764546
0
LINE
8
Layer 1
10
594.149033
20
795.764546
11
593.673302
21
799.981666
0
LINE
8
Layer 1
10
593.673302
20
799.981666
11
593.282500
21
801.085054
0
LINE
8
Layer 1
10
593.282500
20
801.085054
11
592.499194
21
801.954896
0
LINE
8
Layer 1
10
592.499194
20
801.954896
11
591.442639
21
802.458763
0
LINE
8
Layer 1
10
591.442639
20
802.458763
11
590.273687
21
802.519945
0
LINE
8
Layer 1
10
590.273687
20
802.519945
11
590.273921
21
802.519891
0
LINE
8
Layer 1
10
470.918459
20
802.103290
11
469.766935
21
802.406738
0
LINE
8
Layer 1
10
469.766935
20
802.406738
11
468.627921
21
802.250652
0
LINE
8
Layer 1
10
468.627921
20
802.250652
11
467.630464
21
801.678992
0
LINE
8
Layer 1
10
467.630464
20
801.678992
11
466.903613
21
800.735713
0
LINE
8
Layer 1
10
466.903613
20
800.735713
11
465.111734
21
796.713633
0
LINE
8
Layer 1
10
465.111734
20
796.713633
11
463.630078
21
792.570889
0
LINE
8
Layer 1
10
463.630078
20
792.570889
11
462.462875
21
788.330478
0
LINE
8
Layer 1
10
462.462875
20
788.330478
11
461.614358
21
784.015396
0
LINE
8
Layer 1
10
461.614358
20
784.015396
11
461.201485
21
780.899598
0
LINE
8
Layer 1
10
461.201485
20
780.899598
11
460.950430
21
777.772033
0
LINE
8
Layer 1
10
460.950430
20
777.772033
11
460.857597
21
774.639537
0
LINE
8
Layer 1
10
460.857597
20
774.639537
11
460.919390
21
771.508945
0
LINE
8
Layer 1
10
460.919390
20
771.508945
11
461.492475
21
765.280821
0
LINE
8
Layer 1
10
461.492475
20
765.280821
11
462.640916
21
759.142348
0
LINE
8
Layer 1
10
462.640916
20
759.142348
11
462.639116
21
759.142348
0
LINE
8
Layer 1
10
462.639116
20
759.142348
11
463.692535
21
755.174515
0
LINE
8
Layer 1
10
463.692535
20
755.174515
11
464.970343
21
751.277064
0
LINE
8
Layer 1
10
464.970343
20
751.277064
11
466.465463
21
747.460100
0
LINE
8
Layer 1
10
466.465463
20
747.460100
11
468.170815
21
743.733729
0
LINE
8
Layer 1
10
468.170815
20
743.733729
11
470.079321
21
740.108058
0
LINE
8
Layer 1
10
470.079321
20
740.108058
11
472.183903
21
736.593191
0
LINE
8
Layer 1
10
472.183903
20
736.593191
11
474.477481
21
733.199235
0
LINE
8
Layer 1
10
474.477481
20
733.199235
11
476.952977
21
729.936295
0
LINE
8
Layer 1
10
476.952977
20
729.936295
11
476.952977
21
729.934495
0
LINE
8
Layer 1
10
476.952977
20
729.934495
11
479.174732
21
727.297798
0
LINE
8
Layer 1
10
479.174732
20
727.297798
11
481.520998
21
724.766604
0
LINE
8
Layer 1
10
481.520998
20
724.766604
11
483.987889
21
722.349178
0
LINE
8
Layer 1
10
483.987889
20
722.349178
11
486.571521
21
720.053789
0
LINE
8
Layer 1
10
486.571521
20
720.053789
11
489.268008
21
717.888702
0
LINE
8
Layer 1
10
489.268008
20
717.888702
11
492.073466
21
715.862185
0
LINE
8
Layer 1
10
492.073466
20
715.862185
11
494.984009
21
713.982505
0
LINE
8
Layer 1
10
494.984009
20
713.982505
11
497.995751
21
712.257928
0
LINE
8
Layer 1
10
497.995751
20
712.257928
11
503.084303
21
709.812677
0
LINE
8
Layer 1
10
503.084303
20
709.812677
11
508.382936
21
707.846936
0
LINE
8
Layer 1
10
508.382936
20
707.846936
11
513.850624
21
706.391721
0
LINE
8
Layer 1
10
513.850624
20
706.391721
11
519.446342
21
705.478048
0
LINE
8
Layer 1
10
519.446342
20
705.478048
11
520.633010
21
705.582357
0
LINE
8
Layer 1
10
520.633010
20
705.582357
11
521.652199
21
706.115108
0
LINE
8
Layer 1
10
521.652199
20
706.115108
11
522.397267
21
706.991146
0
LINE
8
Layer 1
10
522.397267
20
706.991146
11
522.761573
21
708.125317
0
LINE
8
Layer 1
10
522.761573
20
708.125317
11
522.657265
21
709.311983
0
LINE
8
Layer 1
10
522.657265
20
709.311983
11
522.124516
21
710.331171
0
LINE
8
Layer 1
10
522.124516
20
710.331171
11
521.248481
21
711.076239
0
LINE
8
Layer 1
10
521.248481
20
711.076239
11
520.114313
21
711.440548
0
LINE
8
Layer 1
10
520.114313
20
711.440548
11
515.110430
21
712.258468
0
LINE
8
Layer 1
10
515.110430
20
712.258468
11
510.201539
21
713.565761
0
LINE
8
Layer 1
10
510.201539
20
713.565761
11
505.429991
21
715.335790
0
LINE
8
Layer 1
10
505.429991
20
715.335790
11
500.838140
21
717.541918
0
LINE
8
Layer 1
10
500.838140
20
717.541918
11
500.836340
21
717.543718
0
LINE
8
Layer 1
10
500.836340
20
717.543718
11
498.105940
21
719.107412
0
LINE
8
Layer 1
10
498.105940
20
719.107412
11
495.460819
21
720.816104
0
LINE
8
Layer 1
10
495.460819
20
720.816104
11
492.905432
21
722.662254
0
LINE
8
Layer 1
10
492.905432
20
722.662254
11
490.444236
21
724.638322
0
LINE
8
Layer 1
10
490.444236
20
724.638322
11
488.081687
21
726.736769
0
LINE
8
Layer 1
10
488.081687
20
726.736769
11
485.822241
21
728.950056
0
LINE
8
Layer 1
10
485.822241
20
728.950056
11
483.670354
21
731.270641
0
LINE
8
Layer 1
10
483.670354
20
731.270641
11
481.630484
21
733.690987
0
LINE
8
Layer 1
10
481.630484
20
733.690987
11
481.630484
21
733.692787
0
LINE
8
Layer 1
10
481.630484
20
733.692787
11
479.354505
21
736.693440
0
LINE
8
Layer 1
10
479.354505
20
736.693440
11
477.245794
21
739.815172
0
LINE
8
Layer 1
10
477.245794
20
739.815172
11
475.311033
21
743.047720
0
LINE
8
Layer 1
10
475.311033
20
743.047720
11
473.556902
21
746.380820
0
LINE
8
Layer 1
10
473.556902
20
746.380820
11
471.990082
21
749.804211
0
LINE
8
Layer 1
10
471.990082
20
749.804211
11
470.617252
21
753.307628
0
LINE
8
Layer 1
10
470.617252
20
753.307628
11
469.445094
21
756.880808
0
LINE
8
Layer 1
10
469.445094
20
756.880808
11
468.480287
21
760.513489
0
LINE
8
Layer 1
10
468.480287
20
760.513489
11
467.433973
21
766.110043
0
LINE
8
Layer 1
10
467.433973
20
766.110043
11
466.913876
21
771.772016
0
LINE
8
Layer 1
10
466.913876
20
771.772016
11
466.941878
21
777.444668
0
LINE
8
Layer 1
10
466.941878
20
777.444668
11
467.539859
21
783.073258
0
LINE
8
Layer 1
10
467.539859
20
783.073258
11
467.539859
21
783.076858
0
LINE
8
Layer 1
10
467.539859
20
783.076858
11
468.302409
21
786.954249
0
LINE
8
Layer 1
10
468.302409
20
786.954249
11
469.350858
21
790.763527
0
LINE
8
Layer 1
10
469.350858
20
790.763527
11
470.680332
21
794.481963
0
LINE
8
Layer 1
10
470.680332
20
794.481963
11
472.285955
21
798.086824
0
LINE
8
Layer 1
10
472.285955
20
798.086824
11
472.587987
21
799.217870
0
LINE
8
Layer 1
10
472.587987
20
799.217870
11
472.434141
21
800.378396
0
LINE
8
Layer 1
10
472.434141
20
800.378396
11
471.847845
21
801.391681
0
LINE
8
Layer 1
10
471.847845
20
801.391681
11
470.918378
21
802.103425
0
LINE
8
Layer 1
10
470.918378
20
802.103425
11
470.918459
21
802.103290
0
LINE
8
Layer 1
10
511.743647
20
794.296843
11
510.057570
21
794.293253
0
LINE
8
Layer 1
10
510.057570
20
794.293253
11
508.430306
21
794.033992
0
LINE
8
Layer 1
10
508.430306
20
794.033992
11
506.882078
21
793.549321
0
LINE
8
Layer 1
10
506.882078
20
793.549321
11
505.433108
21
792.869497
0
LINE
8
Layer 1
10
505.433108
20
792.869497
11
505.431308
21
792.867697
0
LINE
8
Layer 1
10
505.431308
20
792.867697
11
503.800033
21
791.821743
0
LINE
8
Layer 1
10
503.800033
20
791.821743
11
502.359309
21
790.616844
0
LINE
8
Layer 1
10
502.359309
20
790.616844
11
501.091401
21
789.300310
0
LINE
8
Layer 1
10
501.091401
20
789.300310
11
499.978577
21
787.919452
0
LINE
8
Layer 1
10
499.978577
20
787.919452
11
499.973177
21
787.910452
0
LINE
8
Layer 1
10
499.973177
20
787.910452
11
498.603583
21
785.869207
0
LINE
8
Layer 1
10
498.603583
20
785.869207
11
497.429902
21
783.757763
0
LINE
8
Layer 1
10
497.429902
20
783.757763
11
495.554033
21
779.436034
0
LINE
8
Layer 1
10
495.554033
20
779.436034
11
495.446807
21
779.084476
0
LINE
8
Layer 1
10
495.446807
20
779.084476
11
494.812235
21
776.078611
0
LINE
8
Layer 1
10
494.812235
20
776.078611
11
494.810435
21
776.075011
0
LINE
8
Layer 1
10
494.810435
20
776.075011
11
494.329279
21
772.836929
0
LINE
8
Layer 1
10
494.329279
20
772.836929
11
494.080275
21
769.534343
0
LINE
8
Layer 1
10
494.080275
20
769.534343
11
494.113295
21
766.188613
0
LINE
8
Layer 1
10
494.113295
20
766.188613
11
494.478209
21
762.821098
0
LINE
8
Layer 1
10
494.478209
20
762.821098
11
494.476409
21
762.822898
0
LINE
8
Layer 1
10
494.476409
20
762.822898
11
495.042191
21
760.151042
0
LINE
8
Layer 1
10
495.042191
20
760.151042
11
495.883254
21
757.528884
0
LINE
8
Layer 1
10
495.883254
20
757.528884
11
497.016256
21
754.994797
0
LINE
8
Layer 1
10
497.016256
20
754.994797
11
498.457856
21
752.587153
0
LINE
8
Layer 1
10
498.457856
20
752.587153
11
500.148824
21
750.413077
0
LINE
8
Layer 1
10
500.148824
20
750.413077
11
502.082410
21
748.474008
0
LINE
8
Layer 1
10
502.082410
20
748.474008
11
504.225203
21
746.783600
0
LINE
8
Layer 1
10
504.225203
20
746.783600
11
506.543789
21
745.355509
0
LINE
8
Layer 1
10
506.543789
20
745.355509
11
506.549189
21
745.353709
0
LINE
8
Layer 1
10
506.549189
20
745.353709
11
506.550989
21
745.351909
0
LINE
8
Layer 1
10
506.550989
20
745.351909
11
509.551125
21
743.965958
0
LINE
8
Layer 1
10
509.551125
20
743.965958
11
512.661419
21
742.961898
0
LINE
8
Layer 1
10
512.661419
20
742.961898
11
515.836615
21
742.308653
0
LINE
8
Layer 1
10
515.836615
20
742.308653
11
519.031460
21
741.975145
0
LINE
8
Layer 1
10
519.031460
20
741.975145
11
519.035060
21
741.975145
0
LINE
8
Layer 1
10
519.035060
20
741.975145
11
523.056545
21
741.963959
0
LINE
8
Layer 1
10
523.056545
20
741.963959
11
527.036787
21
742.365837
0
LINE
8
Layer 1
10
527.036787
20
742.365837
11
530.944875
21
743.148493
0
LINE
8
Layer 1
10
530.944875
20
743.148493
11
534.749897
21
744.279640
0
LINE
8
Layer 1
10
534.749897
20
744.279640
11
534.753497
21
744.279640
0
LINE
8
Layer 1
10
534.753497
20
744.279640
11
537.225047
21
745.219558
0
LINE
8
Layer 1
10
537.225047
20
745.219558
11
539.639330
21
746.303416
0
LINE
8
Layer 1
10
539.639330
20
746.303416
11
541.987052
21
747.528625
0
LINE
8
Layer 1
10
541.987052
20
747.528625
11
544.258918
21
748.892597
0
LINE
8
Layer 1
10
544.258918
20
748.892597
11
546.445634
21
750.392742
0
LINE
8
Layer 1
10
546.445634
20
750.392742
11
548.537906
21
752.026472
0
LINE
8
Layer 1
10
548.537906
20
752.026472
11
550.526439
21
753.791199
0
LINE
8
Layer 1
10
550.526439
20
753.791199
11
552.401939
21
755.684332
0
LINE
8
Layer 1
10
552.401939
20
755.684332
11
553.015565
21
756.681203
0
LINE
8
Layer 1
10
553.015565
20
756.681203
11
553.200976
21
757.837019
0
LINE
8
Layer 1
10
553.200976
20
757.837019
11
552.929941
21
758.975802
0
LINE
8
Layer 1
10
552.929941
20
758.975802
11
552.243728
21
759.924169
0
LINE
8
Layer 1
10
552.243728
20
759.924169
11
551.246859
21
760.537797
0
LINE
8
Layer 1
10
551.246859
20
760.537797
11
550.091043
21
760.723210
0
LINE
8
Layer 1
10
550.091043
20
760.723210
11
548.952259
21
760.452178
0
LINE
8
Layer 1
10
548.952259
20
760.452178
11
548.003891
21
759.765967
0
LINE
8
Layer 1
10
548.003891
20
759.765967
11
544.697895
21
756.638986
0
LINE
8
Layer 1
10
544.697895
20
756.638986
11
541.013520
21
753.942487
0
LINE
8
Layer 1
10
541.013520
20
753.942487
11
537.019983
21
751.703383
0
LINE
8
Layer 1
10
537.019983
20
751.703383
11
532.786502
21
749.948587
0
LINE
8
Layer 1
10
532.786502
20
749.948587
11
529.495741
21
748.971205
0
LINE
8
Layer 1
10
529.495741
20
748.971205
11
526.142493
21
748.300268
0
LINE
8
Layer 1
10
526.142493
20
748.300268
11
522.759102
21
747.957787
0
LINE
8
Layer 1
10
522.759102
20
747.957787
11
519.377915
21
747.965770
0
LINE
8
Layer 1
10
519.377915
20
747.965770
11
516.747785
21
748.241134
0
LINE
8
Layer 1
10
516.747785
20
748.241134
11
514.182727
21
748.769297
0
LINE
8
Layer 1
10
514.182727
20
748.769297
11
511.721806
21
749.561908
0
LINE
8
Layer 1
10
511.721806
20
749.561908
11
509.404088
21
750.630616
0
LINE
8
Layer 1
10
509.404088
20
750.630616
11
509.398688
21
750.634216
0
LINE
8
Layer 1
10
509.398688
20
750.634216
11
507.665843
21
751.701602
0
LINE
8
Layer 1
10
507.665843
20
751.701602
11
506.071952
21
752.958400
0
LINE
8
Layer 1
10
506.071952
20
752.958400
11
504.645090
21
754.386406
0
LINE
8
Layer 1
10
504.645090
20
754.386406
11
503.413337
21
755.967418
0
LINE
8
Layer 1
10
503.413337
20
755.967418
11
503.406137
21
755.977948
0
LINE
8
Layer 1
10
503.406137
20
755.977948
11
502.345728
21
757.752208
0
LINE
8
Layer 1
10
502.345728
20
757.752208
11
501.492414
21
759.665376
0
LINE
8
Layer 1
10
501.492414
20
759.665376
11
500.844498
21
761.685562
0
LINE
8
Layer 1
10
500.844498
20
761.685562
11
500.400281
21
763.780876
0
LINE
8
Layer 1
10
500.400281
20
763.780876
11
500.400281
21
763.782676
0
LINE
8
Layer 1
10
500.400281
20
763.782676
11
500.105058
21
766.528187
0
LINE
8
Layer 1
10
500.105058
20
766.528187
11
500.079577
21
769.327568
0
LINE
8
Layer 1
10
500.079577
20
769.327568
11
500.293110
21
772.159533
0
LINE
8
Layer 1
10
500.293110
20
772.159533
11
500.714930
21
775.002796
0
LINE
8
Layer 1
10
500.714930
20
775.002796
11
500.714930
21
775.004596
0
LINE
8
Layer 1
10
500.714930
20
775.004596
11
501.240512
21
777.491899
0
LINE
8
Layer 1
10
501.240512
20
777.491899
11
502.820578
21
781.108819
0
LINE
8
Layer 1
10
502.820578
20
781.108819
11
503.751230
21
782.782346
0
LINE
8
Layer 1
10
503.751230
20
782.782346
11
504.794810
21
784.340341
0
LINE
8
Layer 1
10
504.794810
20
784.340341
11
504.796610
21
784.342141
0
LINE
8
Layer 1
10
504.796610
20
784.342141
11
506.467893
21
786.237125
0
LINE
8
Layer 1
10
506.467893
20
786.237125
11
508.319273
21
787.609915
0
LINE
8
Layer 1
10
508.319273
20
787.609915
11
508.326473
21
787.613515
0
LINE
8
Layer 1
10
508.326473
20
787.613515
11
509.808709
21
788.189917
0
LINE
8
Layer 1
10
509.808709
20
788.189917
11
511.277843
21
788.316640
0
LINE
8
Layer 1
10
511.277843
20
788.316640
11
511.298903
21
788.314840
0
LINE
8
Layer 1
10
511.298903
20
788.314840
11
512.846391
21
787.921807
0
LINE
8
Layer 1
10
512.846391
20
787.921807
11
514.297739
21
787.024609
0
LINE
8
Layer 1
10
514.297739
20
787.024609
11
514.301339
21
787.021009
0
LINE
8
Layer 1
10
514.301339
20
787.021009
11
515.243083
21
786.066383
0
LINE
8
Layer 1
10
515.243083
20
786.066383
11
516.026690
21
784.930616
0
LINE
8
Layer 1
10
516.026690
20
784.930616
11
516.631409
21
783.659237
0
LINE
8
Layer 1
10
516.631409
20
783.659237
11
517.036493
21
782.297773
0
LINE
8
Layer 1
10
517.036493
20
782.297773
11
517.038293
21
782.292373
0
LINE
8
Layer 1
10
517.038293
20
782.292373
11
517.220452
21
781.028460
0
LINE
8
Layer 1
10
517.220452
20
781.028460
11
517.231102
21
779.740899
0
LINE
8
Layer 1
10
517.231102
20
779.740899
11
517.072837
21
778.458176
0
LINE
8
Layer 1
10
517.072837
20
778.458176
11
516.748250
21
777.208777
0
LINE
8
Layer 1
10
516.748250
20
777.208777
11
516.602092
21
776.046832
0
LINE
8
Layer 1
10
516.602092
20
776.046832
11
516.911931
21
774.917462
0
LINE
8
Layer 1
10
516.911931
20
774.917462
11
517.630552
21
773.992766
0
LINE
8
Layer 1
10
517.630552
20
773.992766
11
518.648447
21
773.413657
0
LINE
8
Layer 1
10
518.648447
20
773.413657
11
519.809917
21
773.268107
0
LINE
8
Layer 1
10
519.809917
20
773.268107
11
520.938673
21
773.578117
0
LINE
8
Layer 1
10
520.938673
20
773.578117
11
521.862870
21
774.296488
0
LINE
8
Layer 1
10
521.862870
20
774.296488
11
522.441803
21
775.313854
0
LINE
8
Layer 1
10
522.441803
20
775.313854
11
522.968208
21
777.330628
0
LINE
8
Layer 1
10
522.968208
20
777.330628
11
523.224662
21
779.397080
0
LINE
8
Layer 1
10
523.224662
20
779.397080
11
523.204824
21
781.483394
0
LINE
8
Layer 1
10
523.204824
20
781.483394
11
522.902351
21
783.559753
0
LINE
8
Layer 1
10
522.902351
20
783.559753
11
522.238061
21
785.808069
0
LINE
8
Layer 1
10
522.238061
20
785.808069
11
521.226464
21
787.941220
0
LINE
8
Layer 1
10
521.226464
20
787.941220
11
519.866728
21
789.897650
0
LINE
8
Layer 1
10
519.866728
20
789.897650
11
518.158019
21
791.615806
0
LINE
8
Layer 1
10
518.158019
20
791.615806
11
516.758779
21
792.632448
0
LINE
8
Layer 1
10
516.758779
20
792.632448
11
515.209857
21
793.442423
0
LINE
8
Layer 1
10
515.209857
20
793.442423
11
513.531451
21
794.009257
0
LINE
8
Layer 1
10
513.531451
20
794.009257
11
511.743755
21
794.296474
0
LINE
8
Layer 1
10
511.743755
20
794.296474
11
511.743647
21
794.296843
0
LINE
8
Layer 1
10
480.872945
20
776.785516
11
479.691080
21
776.638240
0
LINE
8
Layer 1
10
479.691080
20
776.638240
11
478.692039
21
776.069039
0
LINE
8
Layer 1
10
478.692039
20
776.069039
11
477.979251
21
775.166815
0
LINE
8
Layer 1
10
477.979251
20
775.166815
11
477.656147
21
774.020473
0
LINE
8
Layer 1
10
477.656147
20
774.020473
11
477.516230
21
768.749444
0
LINE
8
Layer 1
10
477.516230
20
768.749444
11
477.893517
21
763.486786
0
LINE
8
Layer 1
10
477.893517
20
763.486786
11
478.792843
21
758.283453
0
LINE
8
Layer 1
10
478.792843
20
758.283453
11
480.219041
21
753.190396
0
LINE
8
Layer 1
10
480.219041
20
753.190396
11
480.220841
21
753.188596
0
LINE
8
Layer 1
10
480.220841
20
753.188596
11
481.850503
21
749.010089
0
LINE
8
Layer 1
10
481.850503
20
749.010089
11
483.882741
21
744.992029
0
LINE
8
Layer 1
10
483.882741
20
744.992029
11
486.324801
21
741.190123
0
LINE
8
Layer 1
10
486.324801
20
741.190123
11
489.183932
21
737.660077
0
LINE
8
Layer 1
10
489.183932
20
737.660077
11
489.185732
21
737.658277
0
LINE
8
Layer 1
10
489.185732
20
737.658277
11
489.187532
21
737.656477
0
LINE
8
Layer 1
10
489.187532
20
737.656477
11
491.647115
21
735.187252
0
LINE
8
Layer 1
10
491.647115
20
735.187252
11
494.328367
21
732.956679
0
LINE
8
Layer 1
10
494.328367
20
732.956679
11
497.211712
21
730.985965
0
LINE
8
Layer 1
10
497.211712
20
730.985965
11
500.277575
21
729.296314
0
LINE
8
Layer 1
10
500.277575
20
729.296314
11
504.252907
21
727.244093
0
LINE
8
Layer 1
10
504.252907
20
727.244093
11
508.399229
21
725.571812
0
LINE
8
Layer 1
10
508.399229
20
725.571812
11
512.682819
21
724.293131
0
LINE
8
Layer 1
10
512.682819
20
724.293131
11
517.069955
21
723.421708
0
LINE
8
Layer 1
10
517.069955
20
723.421708
11
522.437058
21
722.910256
0
LINE
8
Layer 1
10
522.437058
20
722.910256
11
527.812998
21
722.977449
0
LINE
8
Layer 1
10
527.812998
20
722.977449
11
533.144909
21
723.598120
0
LINE
8
Layer 1
10
533.144909
20
723.598120
11
538.379921
21
724.747102
0
LINE
8
Layer 1
10
538.379921
20
724.747102
11
542.466639
21
726.025469
0
LINE
8
Layer 1
10
542.466639
20
726.025469
11
546.442245
21
727.606430
0
LINE
8
Layer 1
10
546.442245
20
727.606430
11
550.287428
21
729.478247
0
LINE
8
Layer 1
10
550.287428
20
729.478247
11
553.982877
21
731.629179
0
LINE
8
Layer 1
10
553.982877
20
731.629179
11
557.509279
21
734.047489
0
LINE
8
Layer 1
10
557.509279
20
734.047489
11
560.847324
21
736.721436
0
LINE
8
Layer 1
10
560.847324
20
736.721436
11
563.977699
21
739.639281
0
LINE
8
Layer 1
10
563.977699
20
739.639281
11
566.881094
21
742.789285
0
LINE
8
Layer 1
10
566.881094
20
742.789285
11
566.890094
21
742.799815
0
LINE
8
Layer 1
10
566.890094
20
742.799815
11
567.143219
21
743.098642
0
LINE
8
Layer 1
10
567.143219
20
743.098642
11
567.157259
21
743.114482
0
LINE
8
Layer 1
10
567.157259
20
743.114482
11
567.373466
21
743.374636
0
LINE
8
Layer 1
10
567.373466
20
743.374636
11
567.933395
21
744.402758
0
LINE
8
Layer 1
10
567.933395
20
744.402758
11
568.057192
21
745.566902
0
LINE
8
Layer 1
10
568.057192
20
745.566902
11
567.726003
21
746.689787
0
LINE
8
Layer 1
10
567.726003
20
746.689787
11
566.990264
21
747.600415
0
LINE
8
Layer 1
10
566.990264
20
747.600415
11
565.961879
21
748.159976
0
LINE
8
Layer 1
10
565.961879
20
748.159976
11
564.797630
21
748.283310
0
LINE
8
Layer 1
10
564.797630
20
748.283310
11
563.674832
21
747.951632
0
LINE
8
Layer 1
10
563.674832
20
747.951632
11
562.764485
21
747.215458
0
LINE
8
Layer 1
10
562.764485
20
747.215458
11
562.555307
21
746.964088
0
LINE
8
Layer 1
10
562.555307
20
746.964088
11
562.309211
21
746.674054
0
LINE
8
Layer 1
10
562.309211
20
746.674054
11
559.716934
21
743.864613
0
LINE
8
Layer 1
10
559.716934
20
743.864613
11
556.916423
21
741.258094
0
LINE
8
Layer 1
10
556.916423
20
741.258094
11
553.926754
21
738.866230
0
LINE
8
Layer 1
10
553.926754
20
738.866230
11
550.767000
21
736.700752
0
LINE
8
Layer 1
10
550.767000
20
736.700752
11
547.456236
21
734.773392
0
LINE
8
Layer 1
10
547.456236
20
734.773392
11
544.013535
21
733.095881
0
LINE
8
Layer 1
10
544.013535
20
733.095881
11
540.457971
21
731.679951
0
LINE
8
Layer 1
10
540.457971
20
731.679951
11
536.808620
21
730.537333
0
LINE
8
Layer 1
10
536.808620
20
730.537333
11
536.806820
21
730.537333
0
LINE
8
Layer 1
10
536.806820
20
730.537333
11
532.152621
21
729.516448
0
LINE
8
Layer 1
10
532.152621
20
729.516448
11
527.426205
21
728.966638
0
LINE
8
Layer 1
10
527.426205
20
728.966638
11
522.680478
21
728.906425
0
LINE
8
Layer 1
10
522.680478
20
728.906425
11
517.968344
21
729.354328
0
LINE
8
Layer 1
10
517.968344
20
729.354328
11
517.962944
21
729.354328
0
LINE
8
Layer 1
10
517.962944
20
729.354328
11
514.099740
21
730.121540
0
LINE
8
Layer 1
10
514.099740
20
730.121540
11
510.323917
21
731.249198
0
LINE
8
Layer 1
10
510.323917
20
731.249198
11
506.670488
21
732.725367
0
LINE
8
Layer 1
10
506.670488
20
732.725367
11
503.174468
21
734.538112
0
LINE
8
Layer 1
10
503.174468
20
734.538112
11
502.979348
21
734.641828
0
LINE
8
Layer 1
10
502.979348
20
734.641828
11
500.406252
21
736.054638
0
LINE
8
Layer 1
10
500.406252
20
736.054638
11
497.976282
21
737.714265
0
LINE
8
Layer 1
10
497.976282
20
737.714265
11
495.709955
21
739.599880
0
LINE
8
Layer 1
10
495.709955
20
739.599880
11
493.627790
21
741.690655
0
LINE
8
Layer 1
10
493.627790
20
741.690655
11
493.625990
21
741.694255
0
LINE
8
Layer 1
10
493.625990
20
741.694255
11
491.194620
21
744.697730
0
LINE
8
Layer 1
10
491.194620
20
744.697730
11
489.095384
21
747.967182
0
LINE
8
Layer 1
10
489.095384
20
747.967182
11
487.331372
21
751.453200
0
LINE
8
Layer 1
10
487.331372
20
751.453200
11
485.905673
21
755.106370
0
LINE
8
Layer 1
10
485.905673
20
755.106370
11
485.905673
21
755.108170
0
LINE
8
Layer 1
10
485.905673
20
755.108170
11
484.647482
21
759.604657
0
LINE
8
Layer 1
10
484.647482
20
759.604657
11
483.851492
21
764.213711
0
LINE
8
Layer 1
10
483.851492
20
764.213711
11
483.516136
21
768.885131
0
LINE
8
Layer 1
10
483.516136
20
768.885131
11
483.639851
21
773.568718
0
LINE
8
Layer 1
10
483.639851
20
773.568718
11
483.498286
21
774.730790
0
LINE
8
Layer 1
10
483.498286
20
774.730790
11
482.922750
21
775.750206
0
LINE
8
Layer 1
10
482.922750
20
775.750206
11
482.000881
21
776.471738
0
LINE
8
Layer 1
10
482.000881
20
776.471738
11
480.873053
21
776.785516
0
LINE
8
Layer 1
10
480.873053
20
776.785516
11
480.872945
21
776.785516
0
LINE
8
Layer 1
10
310.765916
20
759.123016
11
309.598868
21
759.213983
0
LINE
8
Layer 1
10
309.598868
20
759.213983
11
308.485850
21
758.851398
0
LINE
8
Layer 1
10
308.485850
20
758.851398
11
307.596322
21
758.090466
0
LINE
8
Layer 1
10
307.596322
20
758.090466
11
307.065719
21
757.047040
0
LINE
8
Layer 1
10
307.065719
20
757.047040
11
305.473746
21
751.034119
0
LINE
8
Layer 1
10
305.473746
20
751.034119
11
304.067226
21
744.975781
0
LINE
8
Layer 1
10
304.067226
20
744.975781
11
302.846428
21
738.877631
0
LINE
8
Layer 1
10
302.846428
20
738.877631
11
301.811618
21
732.745276
0
LINE
8
Layer 1
10
301.811618
20
732.745276
11
301.809818
21
732.736276
0
LINE
8
Layer 1
10
301.809818
20
732.736276
11
301.111532
21
728.419489
0
LINE
8
Layer 1
10
301.111532
20
728.419489
11
300.586376
21
723.913810
0
LINE
8
Layer 1
10
300.586376
20
723.913810
11
300.395123
21
720.458037
0
LINE
8
Layer 1
10
300.395123
20
720.458037
11
300.423469
21
716.956146
0
LINE
8
Layer 1
10
300.423469
20
716.956146
11
300.723992
21
713.431086
0
LINE
8
Layer 1
10
300.723992
20
713.431086
11
301.349270
21
709.905805
0
LINE
8
Layer 1
10
301.349270
20
709.905805
11
302.059482
21
707.297509
0
LINE
8
Layer 1
10
302.059482
20
707.297509
11
302.992580
21
704.755045
0
LINE
8
Layer 1
10
302.992580
20
704.755045
11
304.148164
21
702.298899
0
LINE
8
Layer 1
10
304.148164
20
702.298899
11
305.525837
21
699.949555
0
LINE
8
Layer 1
10
305.525837
20
699.949555
11
307.373542
21
697.379342
0
LINE
8
Layer 1
10
307.373542
20
697.379342
11
309.418763
21
695.021719
0
LINE
8
Layer 1
10
309.418763
20
695.021719
11
311.612834
21
692.855602
0
LINE
8
Layer 1
10
311.612834
20
692.855602
11
313.907087
21
690.859906
0
LINE
8
Layer 1
10
313.907087
20
690.859906
11
313.910687
21
690.858106
0
LINE
8
Layer 1
10
313.910687
20
690.858106
11
317.086595
21
688.384353
0
LINE
8
Layer 1
10
317.086595
20
688.384353
11
320.318149
21
686.074889
0
LINE
8
Layer 1
10
320.318149
20
686.074889
11
326.790182
21
681.724510
0
LINE
8
Layer 1
10
326.790182
20
681.724510
11
327.524942
21
678.467284
0
LINE
8
Layer 1
10
327.524942
20
678.467284
11
327.530342
21
678.444424
0
LINE
8
Layer 1
10
327.530342
20
678.444424
11
328.364316
21
675.563805
0
LINE
8
Layer 1
10
328.364316
20
675.563805
11
328.925787
21
674.054216
0
LINE
8
Layer 1
10
328.925787
20
674.054216
11
329.641481
21
672.527626
0
LINE
8
Layer 1
10
329.641481
20
672.527626
11
329.669561
21
672.474886
0
LINE
8
Layer 1
10
329.669561
20
672.474886
11
330.187128
21
671.599159
0
LINE
8
Layer 1
10
330.187128
20
671.599159
11
330.942437
21
670.621732
0
LINE
8
Layer 1
10
330.942437
20
670.621732
11
332.017117
21
669.711751
0
LINE
8
Layer 1
10
332.017117
20
669.711751
11
333.492797
21
669.038362
0
LINE
8
Layer 1
10
333.492797
20
669.038362
11
333.531497
21
669.027832
0
LINE
8
Layer 1
10
333.531497
20
669.027832
11
335.027512
21
668.830586
0
LINE
8
Layer 1
10
335.027512
20
668.830586
11
336.332681
21
669.015642
0
LINE
8
Layer 1
10
336.332681
20
669.015642
11
337.428175
21
669.422563
0
LINE
8
Layer 1
10
337.428175
20
669.422563
11
338.295170
21
669.890914
0
LINE
8
Layer 1
10
338.295170
20
669.890914
11
338.342600
21
669.920794
0
LINE
8
Layer 1
10
338.342600
20
669.920794
11
339.929444
21
671.035736
0
LINE
8
Layer 1
10
339.929444
20
671.035736
11
341.310038
21
672.206272
0
LINE
8
Layer 1
10
341.310038
20
672.206272
11
343.658225
21
674.422549
0
LINE
8
Layer 1
10
343.658225
20
674.422549
11
343.703945
21
674.464759
0
LINE
8
Layer 1
10
343.703945
20
674.464759
11
347.289471
21
677.724054
0
LINE
8
Layer 1
10
347.289471
20
677.724054
11
350.997104
21
680.622379
0
LINE
8
Layer 1
10
350.997104
20
680.622379
11
351.666586
21
680.834727
0
LINE
8
Layer 1
10
351.666586
20
680.834727
11
352.735580
21
680.924725
0
LINE
8
Layer 1
10
352.735580
20
680.924725
11
353.884214
21
681.151629
0
LINE
8
Layer 1
10
353.884214
20
681.151629
11
354.858517
21
681.800919
0
LINE
8
Layer 1
10
354.858517
20
681.800919
11
355.510087
21
682.773698
0
LINE
8
Layer 1
10
355.510087
20
682.773698
11
355.739681
21
683.921797
0
LINE
8
Layer 1
10
355.739681
20
683.921797
11
355.504897
21
685.089571
0
LINE
8
Layer 1
10
355.504897
20
685.089571
11
354.862866
21
686.043590
0
LINE
8
Layer 1
10
354.862866
20
686.043590
11
353.909977
21
686.687297
0
LINE
8
Layer 1
10
353.909977
20
686.687297
11
352.742618
21
686.924134
0
LINE
8
Layer 1
10
352.742618
20
686.924134
11
350.455731
21
686.734288
0
LINE
8
Layer 1
10
350.455731
20
686.734288
11
349.208241
21
686.397107
0
LINE
8
Layer 1
10
349.208241
20
686.397107
11
347.936753
21
685.811446
0
LINE
8
Layer 1
10
347.936753
20
685.811446
11
347.720546
21
685.674331
0
LINE
8
Layer 1
10
347.720546
20
685.674331
11
343.480757
21
682.375392
0
LINE
8
Layer 1
10
343.480757
20
682.375392
11
339.611753
21
678.852259
0
LINE
8
Layer 1
10
339.611753
20
678.852259
11
337.275735
21
676.679776
0
LINE
8
Layer 1
10
337.275735
20
676.679776
11
335.185580
21
675.027259
0
LINE
8
Layer 1
10
335.185580
20
675.027259
11
335.095940
21
674.985049
0
LINE
8
Layer 1
10
335.095940
20
674.985049
11
334.918406
21
675.384073
0
LINE
8
Layer 1
10
334.918406
20
675.384073
11
334.946486
21
675.331333
0
LINE
8
Layer 1
10
334.946486
20
675.331333
11
334.065124
21
677.459881
0
LINE
8
Layer 1
10
334.065124
20
677.459881
11
333.336332
21
679.959646
0
LINE
8
Layer 1
10
333.336332
20
679.959646
11
333.334532
21
679.966846
0
LINE
8
Layer 1
10
333.334532
20
679.966846
11
332.394104
21
684.141649
0
LINE
8
Layer 1
10
332.394104
20
684.141649
11
331.949776
21
685.213478
0
LINE
8
Layer 1
10
331.949776
20
685.213478
11
331.131998
21
686.036572
0
LINE
8
Layer 1
10
331.131998
20
686.036572
11
324.219856
21
690.679574
0
LINE
8
Layer 1
10
324.219856
20
690.679574
11
320.894876
21
693.035125
0
LINE
8
Layer 1
10
320.894876
20
693.035125
11
317.719883
21
695.495356
0
LINE
8
Layer 1
10
317.719883
20
695.495356
11
317.721683
21
695.491756
0
LINE
8
Layer 1
10
317.721683
20
695.491756
11
315.682369
21
697.267032
0
LINE
8
Layer 1
10
315.682369
20
697.267032
11
313.786813
21
699.139619
0
LINE
8
Layer 1
10
313.786813
20
699.139619
11
312.068799
21
701.118351
0
LINE
8
Layer 1
10
312.068799
20
701.118351
11
310.562111
21
703.212064
0
LINE
8
Layer 1
10
310.562111
20
703.212064
11
310.554911
21
703.221064
0
LINE
8
Layer 1
10
310.554911
20
703.221064
11
309.456800
21
705.094620
0
LINE
8
Layer 1
10
309.456800
20
705.094620
11
308.529098
21
707.067199
0
LINE
8
Layer 1
10
308.529098
20
707.067199
11
307.775385
21
709.120176
0
LINE
8
Layer 1
10
307.775385
20
709.120176
11
307.199243
21
711.234925
0
LINE
8
Layer 1
10
307.199243
20
711.234925
11
307.197443
21
711.240325
0
LINE
8
Layer 1
10
307.197443
20
711.240325
11
306.675059
21
714.196757
0
LINE
8
Layer 1
10
306.675059
20
714.196757
11
306.418819
21
717.227917
0
LINE
8
Layer 1
10
306.418819
20
717.227917
11
306.394128
21
720.312449
0
LINE
8
Layer 1
10
306.394128
20
720.312449
11
306.566390
21
723.428998
0
LINE
8
Layer 1
10
306.566390
20
723.428998
11
306.568190
21
723.448348
0
LINE
8
Layer 1
10
306.568190
20
723.448348
11
307.050535
21
727.551448
0
LINE
8
Layer 1
10
307.050535
20
727.551448
11
307.735373
21
731.794435
0
LINE
8
Layer 1
10
307.735373
20
731.794435
11
307.740773
21
731.827825
0
LINE
8
Layer 1
10
307.740773
20
731.827825
11
308.745492
21
737.782714
0
LINE
8
Layer 1
10
308.745492
20
737.782714
11
309.930909
21
743.704063
0
LINE
8
Layer 1
10
309.930909
20
743.704063
11
311.296551
21
749.586073
0
LINE
8
Layer 1
10
311.296551
20
749.586073
11
312.841946
21
755.422945
0
LINE
8
Layer 1
10
312.841946
20
755.422945
11
312.932913
21
756.589993
0
LINE
8
Layer 1
10
312.932913
20
756.589993
11
312.570328
21
757.703011
0
LINE
8
Layer 1
10
312.570328
20
757.703011
11
311.809396
21
758.592539
0
LINE
8
Layer 1
10
311.809396
20
758.592539
11
310.765970
21
759.123142
0
LINE
8
Layer 1
10
310.765970
20
759.123142
11
310.765916
21
759.123016
0
LINE
8
Layer 1
10
385.659272
20
756.785122
11
384.544527
21
756.365248
0
LINE
8
Layer 1
10
384.544527
20
756.365248
11
383.706385
21
755.577856
0
LINE
8
Layer 1
10
383.706385
20
755.577856
11
383.224619
21
754.533647
0
LINE
8
Layer 1
10
383.224619
20
754.533647
11
383.179007
21
753.343324
0
LINE
8
Layer 1
10
383.179007
20
753.343324
11
383.426858
21
751.590790
0
LINE
8
Layer 1
10
383.426858
20
751.590790
11
383.426858
21
751.588990
0
LINE
8
Layer 1
10
383.426858
20
751.588990
11
383.652042
21
749.002902
0
LINE
8
Layer 1
10
383.652042
20
749.002902
11
383.681557
21
746.436649
0
LINE
8
Layer 1
10
383.681557
20
746.436649
11
383.493193
21
743.911801
0
LINE
8
Layer 1
10
383.493193
20
743.911801
11
383.064743
21
741.449932
0
LINE
8
Layer 1
10
383.064743
20
741.449932
11
383.001473
21
741.068485
0
LINE
8
Layer 1
10
383.001473
20
741.068485
11
383.023147
21
741.562629
0
LINE
8
Layer 1
10
383.023147
20
741.562629
11
382.699127
21
740.630788
0
LINE
8
Layer 1
10
382.699127
20
740.630788
11
380.985491
21
736.233949
0
LINE
8
Layer 1
10
380.985491
20
736.233949
11
380.317821
21
733.910690
0
LINE
8
Layer 1
10
380.317821
20
733.910690
11
379.830377
21
731.498956
0
LINE
8
Layer 1
10
379.830377
20
731.498956
11
379.830377
21
731.495356
0
LINE
8
Layer 1
10
379.830377
20
731.495356
11
379.605017
21
729.458076
0
LINE
8
Layer 1
10
379.605017
20
729.458076
11
379.579238
21
727.361837
0
LINE
8
Layer 1
10
379.579238
20
727.361837
11
379.798120
21
725.233531
0
LINE
8
Layer 1
10
379.798120
20
725.233531
11
380.306747
21
723.100048
0
LINE
8
Layer 1
10
380.306747
20
723.100048
11
380.960656
21
721.378690
0
LINE
8
Layer 1
10
380.960656
20
721.378690
11
381.807999
21
719.770097
0
LINE
8
Layer 1
10
381.807999
20
719.770097
11
382.825809
21
718.283120
0
LINE
8
Layer 1
10
382.825809
20
718.283120
11
383.991122
21
716.926606
0
LINE
8
Layer 1
10
383.991122
20
716.926606
11
383.992922
21
716.924806
0
LINE
8
Layer 1
10
383.992922
20
716.924806
11
383.994722
21
716.923006
0
LINE
8
Layer 1
10
383.994722
20
716.923006
11
385.660754
21
715.363901
0
LINE
8
Layer 1
10
385.660754
20
715.363901
11
387.430872
21
714.021655
0
LINE
8
Layer 1
10
387.430872
20
714.021655
11
389.262261
21
712.861822
0
LINE
8
Layer 1
10
389.262261
20
712.861822
11
391.112102
21
711.849958
0
LINE
8
Layer 1
10
391.112102
20
711.849958
11
391.126142
21
711.842758
0
LINE
8
Layer 1
10
391.126142
20
711.842758
11
394.709320
21
710.180032
0
LINE
8
Layer 1
10
394.709320
20
710.180032
11
398.301112
21
708.745609
0
LINE
8
Layer 1
10
398.301112
20
708.745609
11
405.331031
21
706.159753
0
LINE
8
Layer 1
10
405.331031
20
706.159753
11
405.336431
21
706.157953
0
LINE
8
Layer 1
10
405.336431
20
706.157953
11
410.262624
21
704.164761
0
LINE
8
Layer 1
10
410.262624
20
704.164761
11
412.597071
21
703.057688
0
LINE
8
Layer 1
10
412.597071
20
703.057688
11
414.818066
21
701.833732
0
LINE
8
Layer 1
10
414.818066
20
701.833732
11
416.413837
21
700.795595
0
LINE
8
Layer 1
10
416.413837
20
700.795595
11
417.886663
21
699.661041
0
LINE
8
Layer 1
10
417.886663
20
699.661041
11
419.208590
21
698.426309
0
LINE
8
Layer 1
10
419.208590
20
698.426309
11
420.351662
21
697.087636
0
LINE
8
Layer 1
10
420.351662
20
697.087636
11
420.358862
21
697.078636
0
LINE
8
Layer 1
10
420.358862
20
697.078636
11
420.408092
21
696.996016
0
LINE
8
Layer 1
10
420.408092
20
696.996016
11
417.536259
21
697.497388
0
LINE
8
Layer 1
10
417.536259
20
697.497388
11
414.378794
21
697.663987
0
LINE
8
Layer 1
10
414.378794
20
697.663987
11
414.319034
21
697.662187
0
LINE
8
Layer 1
10
414.319034
20
697.662187
11
413.309603
21
697.584103
0
LINE
8
Layer 1
10
413.309603
20
697.584103
11
412.117516
21
697.355180
0
LINE
8
Layer 1
10
412.117516
20
697.355180
11
410.837468
21
696.842063
0
LINE
8
Layer 1
10
410.837468
20
696.842063
11
409.564154
21
695.911399
0
LINE
8
Layer 1
10
409.564154
20
695.911399
11
409.556954
21
695.904199
0
LINE
8
Layer 1
10
409.556954
20
695.904199
11
408.630757
21
694.703077
0
LINE
8
Layer 1
10
408.630757
20
694.703077
11
408.144631
21
693.437587
0
LINE
8
Layer 1
10
408.144631
20
693.437587
11
407.989374
21
692.198226
0
LINE
8
Layer 1
10
407.989374
20
692.198226
11
408.055781
21
691.075492
0
LINE
8
Layer 1
10
408.055781
20
691.075492
11
408.316051
21
689.768235
0
LINE
8
Layer 1
10
408.316051
20
689.768235
11
408.691851
21
688.588597
0
LINE
8
Layer 1
10
408.691851
20
688.588597
11
409.579805
21
686.575492
0
LINE
8
Layer 1
10
409.579805
20
686.575492
11
409.607885
21
686.519242
0
LINE
8
Layer 1
10
409.607885
20
686.519242
11
411.369249
21
683.357218
0
LINE
8
Layer 1
10
411.369249
20
683.357218
11
413.256430
21
680.366124
0
LINE
8
Layer 1
10
413.256430
20
680.366124
11
417.055736
21
674.694430
0
LINE
8
Layer 1
10
417.055736
20
674.694430
11
417.875417
21
673.858372
0
LINE
8
Layer 1
10
417.875417
20
673.858372
11
418.952695
21
673.399744
0
LINE
8
Layer 1
10
418.952695
20
673.399744
11
420.123482
21
673.388402
0
LINE
8
Layer 1
10
420.123482
20
673.388402
11
421.209443
21
673.826074
0
LINE
8
Layer 1
10
421.209443
20
673.826074
11
422.057314
21
674.662471
0
LINE
8
Layer 1
10
422.057314
20
674.662471
11
422.503278
21
675.722257
0
LINE
8
Layer 1
10
422.503278
20
675.722257
11
422.519416
21
676.871939
0
LINE
8
Layer 1
10
422.519416
20
676.871939
11
422.077808
21
677.978026
0
LINE
8
Layer 1
10
422.077808
20
677.978026
11
418.290918
21
683.648931
0
LINE
8
Layer 1
10
418.290918
20
683.648931
11
416.534234
21
686.424023
0
LINE
8
Layer 1
10
416.534234
20
686.424023
11
414.969212
21
689.217478
0
LINE
8
Layer 1
10
414.969212
20
689.217478
11
414.406516
21
690.528153
0
LINE
8
Layer 1
10
414.406516
20
690.528153
11
414.095582
21
691.613377
0
LINE
8
Layer 1
10
414.095582
20
691.613377
11
414.596558
21
691.666117
0
LINE
8
Layer 1
10
414.596558
20
691.666117
11
416.884643
21
691.526751
0
LINE
8
Layer 1
10
416.884643
20
691.526751
11
419.409443
21
691.080766
0
LINE
8
Layer 1
10
419.409443
20
691.080766
11
419.411243
21
691.080766
0
LINE
8
Layer 1
10
419.411243
20
691.080766
11
424.754993
21
689.679781
0
LINE
8
Layer 1
10
424.754993
20
689.679781
11
425.523249
21
689.556077
0
LINE
8
Layer 1
10
425.523249
20
689.556077
11
426.285330
21
689.631403
0
LINE
8
Layer 1
10
426.285330
20
689.631403
11
427.003562
21
689.897080
0
LINE
8
Layer 1
10
427.003562
20
689.897080
11
427.640271
21
690.344430
0
LINE
8
Layer 1
10
427.640271
20
690.344430
11
428.140617
21
690.940394
0
LINE
8
Layer 1
10
428.140617
20
690.940394
11
428.466958
21
691.633174
0
LINE
8
Layer 1
10
428.466958
20
691.633174
11
428.607414
21
692.385978
0
LINE
8
Layer 1
10
428.607414
20
692.385978
11
428.550104
21
693.162016
0
LINE
8
Layer 1
10
428.550104
20
693.162016
11
428.018432
21
695.172281
0
LINE
8
Layer 1
10
428.018432
20
695.172281
11
427.269957
21
697.111624
0
LINE
8
Layer 1
10
427.269957
20
697.111624
11
426.310775
21
698.959220
0
LINE
8
Layer 1
10
426.310775
20
698.959220
11
425.146979
21
700.694242
0
LINE
8
Layer 1
10
425.146979
20
700.694242
11
423.536704
21
702.585082
0
LINE
8
Layer 1
10
423.536704
20
702.585082
11
421.761476
21
704.246517
0
LINE
8
Layer 1
10
421.761476
20
704.246517
11
419.868892
21
705.702419
0
LINE
8
Layer 1
10
419.868892
20
705.702419
11
417.906551
21
706.976656
0
LINE
8
Layer 1
10
417.906551
20
706.976656
11
417.902951
21
706.980256
0
LINE
8
Layer 1
10
417.902951
20
706.980256
11
415.322256
21
708.405283
0
LINE
8
Layer 1
10
415.322256
20
708.405283
11
412.704020
21
709.648952
0
LINE
8
Layer 1
10
412.704020
20
709.648952
11
407.461538
21
711.768535
0
LINE
8
Layer 1
10
407.461538
20
711.768535
11
407.457938
21
711.770335
0
LINE
8
Layer 1
10
407.457938
20
711.770335
11
400.425285
21
714.367311
0
LINE
8
Layer 1
10
400.425285
20
714.367311
11
397.058716
21
715.707407
0
LINE
8
Layer 1
10
397.058716
20
715.707407
11
393.843674
21
717.193186
0
LINE
8
Layer 1
10
393.843674
20
717.193186
11
390.833591
21
718.969169
0
LINE
8
Layer 1
10
390.833591
20
718.969169
11
389.507682
21
719.970818
0
LINE
8
Layer 1
10
389.507682
20
719.970818
11
388.334693
21
721.063888
0
LINE
8
Layer 1
10
388.334693
20
721.063888
11
388.331093
21
721.069288
0
LINE
8
Layer 1
10
388.331093
20
721.069288
11
386.945460
21
722.871935
0
LINE
8
Layer 1
10
386.945460
20
722.871935
11
386.035391
21
724.876711
0
LINE
8
Layer 1
10
386.035391
20
724.876711
11
386.031791
21
724.892551
0
LINE
8
Layer 1
10
386.031791
20
724.892551
11
385.719211
21
726.215586
0
LINE
8
Layer 1
10
385.719211
20
726.215586
11
385.577282
21
727.618436
0
LINE
8
Layer 1
10
385.577282
20
727.618436
11
385.757570
21
730.572046
0
LINE
8
Layer 1
10
385.757570
20
730.572046
11
385.757570
21
730.575646
0
LINE
8
Layer 1
10
385.757570
20
730.575646
11
386.157775
21
732.537714
0
LINE
8
Layer 1
10
386.157775
20
732.537714
11
386.727893
21
734.501672
0
LINE
8
Layer 1
10
386.727893
20
734.501672
11
388.272998
21
738.426031
0
LINE
8
Layer 1
10
388.272998
20
738.426031
11
388.374950
21
738.684430
0
LINE
8
Layer 1
10
388.374950
20
738.684430
11
388.388872
21
738.593607
0
LINE
8
Layer 1
10
388.388872
20
738.593607
11
388.549620
21
738.845439
0
LINE
8
Layer 1
10
388.549620
20
738.845439
11
388.946243
21
740.375449
0
LINE
8
Layer 1
10
388.946243
20
740.375449
11
389.451385
21
743.380339
0
LINE
8
Layer 1
10
389.451385
20
743.380339
11
389.671713
21
746.385697
0
LINE
8
Layer 1
10
389.671713
20
746.385697
11
389.638730
21
749.370257
0
LINE
8
Layer 1
10
389.638730
20
749.370257
11
389.383940
21
752.312752
0
LINE
8
Layer 1
10
389.383940
20
752.312752
11
389.383940
21
752.314552
0
LINE
8
Layer 1
10
389.383940
20
752.314552
11
389.100926
21
754.304398
0
LINE
8
Layer 1
10
389.100926
20
754.304398
11
388.681055
21
755.419146
0
LINE
8
Layer 1
10
388.681055
20
755.419146
11
387.893663
21
756.257291
0
LINE
8
Layer 1
10
387.893663
20
756.257291
11
386.849453
21
756.739059
0
LINE
8
Layer 1
10
386.849453
20
756.739059
11
385.659128
21
756.784672
0
LINE
8
Layer 1
10
385.659128
20
756.784672
11
385.659272
21
756.785122
0
LINE
8
Layer 1
10
367.690916
20
756.245473
11
366.609198
21
755.746787
0
LINE
8
Layer 1
10
366.609198
20
755.746787
11
365.829683
21
754.901389
0
LINE
8
Layer 1
10
365.829683
20
754.901389
11
365.423997
21
753.825396
0
LINE
8
Layer 1
10
365.423997
20
753.825396
11
365.463767
21
752.634925
0
LINE
8
Layer 1
10
365.463767
20
752.634925
11
365.867756
21
750.486677
0
LINE
8
Layer 1
10
365.867756
20
750.486677
11
366.063165
21
748.322878
0
LINE
8
Layer 1
10
366.063165
20
748.322878
11
366.039735
21
746.168375
0
LINE
8
Layer 1
10
366.039735
20
746.168375
11
365.787209
21
744.048016
0
LINE
8
Layer 1
10
365.787209
20
744.048016
11
365.785409
21
744.039016
0
LINE
8
Layer 1
10
365.785409
20
744.039016
11
365.280591
21
741.887608
0
LINE
8
Layer 1
10
365.280591
20
741.887608
11
364.530999
21
739.789857
0
LINE
8
Layer 1
10
364.530999
20
739.789857
11
363.555635
21
737.769715
0
LINE
8
Layer 1
10
363.555635
20
737.769715
11
362.373500
21
735.851131
0
LINE
8
Layer 1
10
362.373500
20
735.851131
11
362.371700
21
735.847531
0
LINE
8
Layer 1
10
362.371700
20
735.847531
11
360.588696
21
733.542458
0
LINE
8
Layer 1
10
360.588696
20
733.542458
11
358.548805
21
731.416438
0
LINE
8
Layer 1
10
358.548805
20
731.416438
11
356.291211
21
729.470858
0
LINE
8
Layer 1
10
356.291211
20
729.470858
11
353.855099
21
727.707103
0
LINE
8
Layer 1
10
353.855099
20
727.707103
11
350.830563
21
725.879896
0
LINE
8
Layer 1
10
350.830563
20
725.879896
11
347.658183
21
724.298901
0
LINE
8
Layer 1
10
347.658183
20
724.298901
11
344.363071
21
722.963901
0
LINE
8
Layer 1
10
344.363071
20
722.963901
11
340.970339
21
721.874680
0
LINE
8
Layer 1
10
340.970339
20
721.874680
11
336.034397
21
720.784834
0
LINE
8
Layer 1
10
336.034397
20
720.784834
11
335.036330
21
720.435369
0
LINE
8
Layer 1
10
335.036330
20
720.435369
11
334.241496
21
719.783624
0
LINE
8
Layer 1
10
334.241496
20
719.783624
11
333.712620
21
718.902249
0
LINE
8
Layer 1
10
333.712620
20
718.902249
11
333.512427
21
717.863891
0
LINE
8
Layer 1
10
333.512427
20
717.863891
11
333.684150
21
716.820447
0
LINE
8
Layer 1
10
333.684150
20
716.820447
11
334.188726
21
715.924939
0
LINE
8
Layer 1
10
334.188726
20
715.924939
11
334.965440
21
715.251702
0
LINE
8
Layer 1
10
334.965440
20
715.251702
11
335.953577
21
714.875074
0
LINE
8
Layer 1
10
335.953577
20
714.875074
11
339.690623
21
714.007290
0
LINE
8
Layer 1
10
339.690623
20
714.007290
11
343.338374
21
712.832226
0
LINE
8
Layer 1
10
343.338374
20
712.832226
11
346.866920
21
711.353633
0
LINE
8
Layer 1
10
346.866920
20
711.353633
11
350.246351
21
709.575262
0
LINE
8
Layer 1
10
350.246351
20
709.575262
11
350.253551
21
709.569862
0
LINE
8
Layer 1
10
350.253551
20
709.569862
11
353.588838
21
707.423875
0
LINE
8
Layer 1
10
353.588838
20
707.423875
11
356.742980
21
704.989697
0
LINE
8
Layer 1
10
356.742980
20
704.989697
11
359.709682
21
702.300730
0
LINE
8
Layer 1
10
359.709682
20
702.300730
11
362.482652
21
699.390376
0
LINE
8
Layer 1
10
362.482652
20
699.390376
11
362.484452
21
699.388576
0
LINE
8
Layer 1
10
362.484452
20
699.388576
11
365.578235
21
695.638324
0
LINE
8
Layer 1
10
365.578235
20
695.638324
11
368.429278
21
691.664674
0
LINE
8
Layer 1
10
368.429278
20
691.664674
11
371.066356
21
687.507371
0
LINE
8
Layer 1
10
371.066356
20
687.507371
11
373.518245
21
683.206162
0
LINE
8
Layer 1
10
373.518245
20
683.206162
11
376.382195
21
677.645660
0
LINE
8
Layer 1
10
376.382195
20
677.645660
11
379.065899
21
671.954398
0
LINE
8
Layer 1
10
379.065899
20
671.954398
11
379.749581
21
671.003891
0
LINE
8
Layer 1
10
379.749581
20
671.003891
11
380.745028
21
670.387474
0
LINE
8
Layer 1
10
380.745028
20
670.387474
11
381.900613
21
670.199040
0
LINE
8
Layer 1
10
381.900613
20
670.199040
11
383.040317
21
670.467292
0
LINE
8
Layer 1
10
383.040317
20
670.467292
11
383.990821
21
671.150973
0
LINE
8
Layer 1
10
383.990821
20
671.150973
11
384.607237
21
672.146417
0
LINE
8
Layer 1
10
384.607237
20
672.146417
11
384.795671
21
673.301999
0
LINE
8
Layer 1
10
384.795671
20
673.301999
11
384.527423
21
674.441701
0
LINE
8
Layer 1
10
384.527423
20
674.441701
11
381.769614
21
680.289365
0
LINE
8
Layer 1
10
381.769614
20
680.289365
11
378.791687
21
686.069638
0
LINE
8
Layer 1
10
378.791687
20
686.069638
11
378.789887
21
686.071438
0
LINE
8
Layer 1
10
378.789887
20
686.071438
11
376.212495
21
690.593784
0
LINE
8
Layer 1
10
376.212495
20
690.593784
11
373.407837
21
695.015776
0
LINE
8
Layer 1
10
373.407837
20
695.015776
11
370.338884
21
699.291576
0
LINE
8
Layer 1
10
370.338884
20
699.291576
11
366.968603
21
703.375342
0
LINE
8
Layer 1
10
366.968603
20
703.375342
11
366.966803
21
703.377142
0
LINE
8
Layer 1
10
366.966803
20
703.377142
11
363.903375
21
706.592803
0
LINE
8
Layer 1
10
363.903375
20
706.592803
11
360.599977
21
709.587676
0
LINE
8
Layer 1
10
360.599977
20
709.587676
11
357.057533
21
712.321424
0
LINE
8
Layer 1
10
357.057533
20
712.321424
11
353.276966
21
714.753709
0
LINE
8
Layer 1
10
353.276966
20
714.753709
11
353.269766
21
714.757309
0
LINE
8
Layer 1
10
353.269766
20
714.757309
11
350.197946
21
716.340168
0
LINE
8
Layer 1
10
350.197946
20
716.340168
11
347.024261
21
717.703396
0
LINE
8
Layer 1
10
347.024261
20
717.703396
11
352.235553
21
719.917472
0
LINE
8
Layer 1
10
352.235553
20
719.917472
11
354.748644
21
721.227815
0
LINE
8
Layer 1
10
354.748644
20
721.227815
11
357.175631
21
722.709646
0
LINE
8
Layer 1
10
357.175631
20
722.709646
11
357.179231
21
722.711446
0
LINE
8
Layer 1
10
357.179231
20
722.711446
11
360.005832
21
724.757094
0
LINE
8
Layer 1
10
360.005832
20
724.757094
11
362.672776
21
727.055054
0
LINE
8
Layer 1
10
362.672776
20
727.055054
11
365.127714
21
729.616219
0
LINE
8
Layer 1
10
365.127714
20
729.616219
11
367.318298
21
732.451480
0
LINE
8
Layer 1
10
367.318298
20
732.451480
11
367.320098
21
732.455080
0
LINE
8
Layer 1
10
367.320098
20
732.455080
11
368.819076
21
734.887280
0
LINE
8
Layer 1
10
368.819076
20
734.887280
11
370.066306
21
737.470716
0
LINE
8
Layer 1
10
370.066306
20
737.470716
11
371.034231
21
740.184810
0
LINE
8
Layer 1
10
371.034231
20
740.184810
11
371.695295
21
743.008984
0
LINE
8
Layer 1
10
371.695295
20
743.008984
11
372.027480
21
745.787668
0
LINE
8
Layer 1
10
372.027480
20
745.787668
11
372.058852
21
748.564940
0
LINE
8
Layer 1
10
372.058852
20
748.564940
11
371.810009
21
751.316091
0
LINE
8
Layer 1
10
371.810009
20
751.316091
11
371.301545
21
754.016407
0
LINE
8
Layer 1
10
371.301545
20
754.016407
11
370.815004
21
755.081224
0
LINE
8
Layer 1
10
370.815004
20
755.081224
11
369.957966
21
755.878748
0
LINE
8
Layer 1
10
369.957966
20
755.878748
11
368.860944
21
756.287527
0
LINE
8
Layer 1
10
368.860944
20
756.287527
11
367.690997
21
756.245311
0
LINE
8
Layer 1
10
367.690997
20
756.245311
11
367.690916
21
756.245473
0
LINE
8
Layer 1
10
437.293262
20
740.695867
11
436.156494
21
740.416616
0
LINE
8
Layer 1
10
436.156494
20
740.416616
11
435.213127
21
739.723592
0
LINE
8
Layer 1
10
435.213127
20
739.723592
11
434.606786
21
738.722305
0
LINE
8
Layer 1
10
434.606786
20
738.722305
11
434.429786
21
737.565199
0
LINE
8
Layer 1
10
434.429786
20
737.565199
11
435.238382
21
725.733367
0
LINE
8
Layer 1
10
435.238382
20
725.733367
11
435.442286
21
724.886098
0
LINE
8
Layer 1
10
435.442286
20
724.886098
11
437.468988
21
720.331691
0
LINE
8
Layer 1
10
437.468988
20
720.331691
11
439.820705
21
715.942676
0
LINE
8
Layer 1
10
439.820705
20
715.942676
11
442.478427
21
711.736310
0
LINE
8
Layer 1
10
442.478427
20
711.736310
11
445.423142
21
707.729848
0
LINE
8
Layer 1
10
445.423142
20
707.729848
11
449.267825
21
703.223931
0
LINE
8
Layer 1
10
449.267825
20
703.223931
11
453.414061
21
699.028001
0
LINE
8
Layer 1
10
453.414061
20
699.028001
11
457.810835
21
695.124644
0
LINE
8
Layer 1
10
457.810835
20
695.124644
11
462.407132
21
691.496449
0
LINE
8
Layer 1
10
462.407132
20
691.496449
11
468.085867
21
687.490330
0
LINE
8
Layer 1
10
468.085867
20
687.490330
11
473.926523
21
683.780109
0
LINE
8
Layer 1
10
473.926523
20
683.780109
11
479.884291
21
680.312676
0
LINE
8
Layer 1
10
479.884291
20
680.312676
11
485.914358
21
677.034925
0
LINE
8
Layer 1
10
485.914358
20
677.034925
11
494.047400
21
672.851347
0
LINE
8
Layer 1
10
494.047400
20
672.851347
11
502.192120
21
668.794189
0
LINE
8
Layer 1
10
502.192120
20
668.794189
11
510.283896
21
664.737086
0
LINE
8
Layer 1
10
510.283896
20
664.737086
11
518.258108
21
660.553675
0
LINE
8
Layer 1
10
518.258108
20
660.553675
11
518.328398
21
660.516775
0
LINE
8
Layer 1
10
518.328398
20
660.516775
11
521.056523
21
659.061304
0
LINE
8
Layer 1
10
521.056523
20
659.061304
11
522.218537
21
658.799274
0
LINE
8
Layer 1
10
522.218537
20
658.799274
11
523.351516
21
658.996299
0
LINE
8
Layer 1
10
523.351516
20
658.996299
11
524.327965
21
659.603757
0
LINE
8
Layer 1
10
524.327965
20
659.603757
11
525.020393
21
660.573025
0
LINE
8
Layer 1
10
525.020393
20
660.573025
11
525.281753
21
661.714497
0
LINE
8
Layer 1
10
525.281753
20
661.714497
11
525.086211
21
662.869066
0
LINE
8
Layer 1
10
525.086211
20
662.869066
11
524.463561
21
663.860820
0
LINE
8
Layer 1
10
524.463561
20
663.860820
11
523.508672
21
664.538650
0
LINE
8
Layer 1
10
523.508672
20
664.538650
11
521.123321
21
665.825371
0
LINE
8
Layer 1
10
521.123321
20
665.825371
11
521.121521
21
665.827171
0
LINE
8
Layer 1
10
521.121521
20
665.827171
11
513.008933
21
670.085049
0
LINE
8
Layer 1
10
513.008933
20
670.085049
11
504.860874
21
674.171498
0
LINE
8
Layer 1
10
504.860874
20
674.171498
11
496.742698
21
678.213567
0
LINE
8
Layer 1
10
496.742698
20
678.213567
11
488.719757
21
682.338301
0
LINE
8
Layer 1
10
488.719757
20
682.338301
11
482.818864
21
685.546360
0
LINE
8
Layer 1
10
482.818864
20
685.546360
11
477.037504
21
688.911379
0
LINE
8
Layer 1
10
477.037504
20
688.911379
11
471.416900
21
692.480875
0
LINE
8
Layer 1
10
471.416900
20
692.480875
11
465.998276
21
696.302368
0
LINE
8
Layer 1
10
465.998276
20
696.302368
11
461.657243
21
699.729499
0
LINE
8
Layer 1
10
461.657243
20
699.729499
11
457.536489
21
703.388313
0
LINE
8
Layer 1
10
457.536489
20
703.388313
11
453.680565
21
707.290043
0
LINE
8
Layer 1
10
453.680565
20
707.290043
11
450.134021
21
711.445921
0
LINE
8
Layer 1
10
450.134021
20
711.445921
11
450.130421
21
711.449521
0
LINE
8
Layer 1
10
450.130421
20
711.449521
11
447.492349
21
715.040442
0
LINE
8
Layer 1
10
447.492349
20
715.040442
11
445.113432
21
718.804228
0
LINE
8
Layer 1
10
445.113432
20
718.804228
11
443.005314
21
722.721814
0
LINE
8
Layer 1
10
443.005314
20
722.721814
11
441.179642
21
726.774136
0
LINE
8
Layer 1
10
441.179642
20
726.774136
11
440.422022
21
737.832535
0
LINE
8
Layer 1
10
440.422022
20
737.832535
11
440.134684
21
738.988196
0
LINE
8
Layer 1
10
440.134684
20
738.988196
11
439.450372
21
739.912024
0
LINE
8
Layer 1
10
439.450372
20
739.912024
11
438.469658
21
740.511976
0
LINE
8
Layer 1
10
438.469658
20
740.511976
11
437.293118
21
740.696011
0
LINE
8
Layer 1
10
437.293118
20
740.696011
11
437.293262
21
740.695867
0
LINE
8
Layer 1
10
629.670017
20
703.321252
11
628.526793
21
703.654052
0
LINE
8
Layer 1
10
628.526793
20
703.654052
11
627.384288
21
703.527267
0
LINE
8
Layer 1
10
627.384288
20
703.527267
11
626.372586
21
702.981509
0
LINE
8
Layer 1
10
626.372586
20
702.981509
11
625.621772
21
702.057391
0
LINE
8
Layer 1
10
625.621772
20
702.057391
11
621.034537
21
693.580799
0
LINE
8
Layer 1
10
621.034537
20
693.580799
11
616.226298
21
685.223802
0
LINE
8
Layer 1
10
616.226298
20
685.223802
11
611.209303
21
676.986284
0
LINE
8
Layer 1
10
611.209303
20
676.986284
11
605.995796
21
668.868127
0
LINE
8
Layer 1
10
605.995796
20
668.868127
11
604.165181
21
666.351368
0
LINE
8
Layer 1
10
604.165181
20
666.351368
11
602.212657
21
663.947289
0
LINE
8
Layer 1
10
602.212657
20
663.947289
11
600.134175
21
661.674089
0
LINE
8
Layer 1
10
600.134175
20
661.674089
11
597.925685
21
659.549968
0
LINE
8
Layer 1
10
597.925685
20
659.549968
11
597.922085
21
659.546368
0
LINE
8
Layer 1
10
597.922085
20
659.546368
11
595.369493
21
657.427061
0
LINE
8
Layer 1
10
595.369493
20
657.427061
11
592.658579
21
655.530592
0
LINE
8
Layer 1
10
592.658579
20
655.530592
11
589.805591
21
653.880242
0
LINE
8
Layer 1
10
589.805591
20
653.880242
11
586.826777
21
652.499296
0
LINE
8
Layer 1
10
586.826777
20
652.499296
11
586.819577
21
652.495696
0
LINE
8
Layer 1
10
586.819577
20
652.495696
11
583.804346
21
651.414373
0
LINE
8
Layer 1
10
583.804346
20
651.414373
11
580.693241
21
650.597884
0
LINE
8
Layer 1
10
580.693241
20
650.597884
11
577.512004
21
650.039920
0
LINE
8
Layer 1
10
577.512004
20
650.039920
11
574.286375
21
649.734172
0
LINE
8
Layer 1
10
574.286375
20
649.734172
11
574.282775
21
649.734172
0
LINE
8
Layer 1
10
574.282775
20
649.734172
11
570.114078
21
649.681945
0
LINE
8
Layer 1
10
570.114078
20
649.681945
11
565.925040
21
649.972321
0
LINE
8
Layer 1
10
565.925040
20
649.972321
11
561.734351
21
650.564179
0
LINE
8
Layer 1
10
561.734351
20
650.564179
11
557.560703
21
651.416398
0
LINE
8
Layer 1
10
557.560703
20
651.416398
11
557.558903
21
651.416398
0
LINE
8
Layer 1
10
557.558903
20
651.416398
11
552.378269
21
652.792125
0
LINE
8
Layer 1
10
552.378269
20
652.792125
11
547.249901
21
654.447240
0
LINE
8
Layer 1
10
547.249901
20
654.447240
11
542.166953
21
656.330245
0
LINE
8
Layer 1
10
542.166953
20
656.330245
11
537.122576
21
658.389643
0
LINE
8
Layer 1
10
537.122576
20
658.389643
11
535.955699
21
658.628140
0
LINE
8
Layer 1
10
535.955699
20
658.628140
11
534.827082
21
658.408402
0
LINE
8
Layer 1
10
534.827082
20
658.408402
11
533.863155
21
657.781580
0
LINE
8
Layer 1
10
533.863155
20
657.781580
11
533.190350
21
656.798821
0
LINE
8
Layer 1
10
533.190350
20
656.798821
11
532.952118
21
655.631645
0
LINE
8
Layer 1
10
532.952118
20
655.631645
11
533.172289
21
654.502891
0
LINE
8
Layer 1
10
533.172289
20
654.502891
11
533.799635
21
653.539046
0
LINE
8
Layer 1
10
533.799635
20
653.539046
11
534.782927
21
652.866595
0
LINE
8
Layer 1
10
534.782927
20
652.866595
11
539.983085
21
650.742752
0
LINE
8
Layer 1
10
539.983085
20
650.742752
11
545.279055
21
648.779881
0
LINE
8
Layer 1
10
545.279055
20
648.779881
11
550.679941
21
647.037074
0
LINE
8
Layer 1
10
550.679941
20
647.037074
11
556.194845
21
645.573427
0
LINE
8
Layer 1
10
556.194845
20
645.573427
11
556.196645
21
645.573427
0
LINE
8
Layer 1
10
556.196645
20
645.573427
11
560.703035
21
644.652609
0
LINE
8
Layer 1
10
560.703035
20
644.652609
11
565.288690
21
644.004517
0
LINE
8
Layer 1
10
565.288690
20
644.004517
11
569.935551
21
643.683410
0
LINE
8
Layer 1
10
569.935551
20
643.683410
11
574.625558
21
643.743547
0
LINE
8
Layer 1
10
574.625558
20
643.743547
11
578.311609
21
644.093184
0
LINE
8
Layer 1
10
578.311609
20
644.093184
11
581.969713
21
644.735313
0
LINE
8
Layer 1
10
581.969713
20
644.735313
11
585.572437
21
645.681804
0
LINE
8
Layer 1
10
585.572437
20
645.681804
11
589.092347
21
646.944523
0
LINE
8
Layer 1
10
589.092347
20
646.944523
11
592.574320
21
648.557806
0
LINE
8
Layer 1
10
592.574320
20
648.557806
11
595.884323
21
650.471615
0
LINE
8
Layer 1
10
595.884323
20
650.471615
11
599.008985
21
652.657424
0
LINE
8
Layer 1
10
599.008985
20
652.657424
11
601.934933
21
655.086706
0
LINE
8
Layer 1
10
601.934933
20
655.086706
11
604.438457
21
657.493953
0
LINE
8
Layer 1
10
604.438457
20
657.493953
11
606.770408
21
660.044167
0
LINE
8
Layer 1
10
606.770408
20
660.044167
11
608.939016
21
662.715456
0
LINE
8
Layer 1
10
608.939016
20
662.715456
11
610.952510
21
665.485927
0
LINE
8
Layer 1
10
610.952510
20
665.485927
11
610.987700
21
665.538667
0
LINE
8
Layer 1
10
610.987700
20
665.538667
11
616.281805
21
673.781415
0
LINE
8
Layer 1
10
616.281805
20
673.781415
11
621.379490
21
682.151257
0
LINE
8
Layer 1
10
621.379490
20
682.151257
11
626.268194
21
690.648349
0
LINE
8
Layer 1
10
626.268194
20
690.648349
11
630.935354
21
699.272845
0
LINE
8
Layer 1
10
630.935354
20
699.272845
11
631.267856
21
700.416352
0
LINE
8
Layer 1
10
631.267856
20
700.416352
11
631.140630
21
701.558980
0
LINE
8
Layer 1
10
631.140630
20
701.558980
11
630.594360
21
702.570599
0
LINE
8
Layer 1
10
630.594360
20
702.570599
11
629.669729
21
703.321081
0
LINE
8
Layer 1
10
629.669729
20
703.321081
11
629.670017
21
703.321252
0
LINE
8
Layer 1
10
258.122945
20
697.527502
11
255.990304
21
697.300377
0
LINE
8
Layer 1
10
255.990304
20
697.300377
11
253.893647
21
696.706612
0
LINE
8
Layer 1
10
253.893647
20
696.706612
11
252.885678
21
696.071873
0
LINE
8
Layer 1
10
252.885678
20
696.071873
11
252.222336
21
695.132512
0
LINE
8
Layer 1
10
252.222336
20
695.132512
11
251.959592
21
694.012964
0
LINE
8
Layer 1
10
251.959592
20
694.012964
11
252.153416
21
692.837665
0
LINE
8
Layer 1
10
252.153416
20
692.837665
11
252.788153
21
691.829693
0
LINE
8
Layer 1
10
252.788153
20
691.829693
11
253.727514
21
691.166348
0
LINE
8
Layer 1
10
253.727514
20
691.166348
11
254.847063
21
690.903602
0
LINE
8
Layer 1
10
254.847063
20
690.903602
11
256.022363
21
691.097425
0
LINE
8
Layer 1
10
256.022363
20
691.097425
11
257.113657
21
691.401063
0
LINE
8
Layer 1
10
257.113657
20
691.401063
11
258.272631
21
691.520210
0
LINE
8
Layer 1
10
258.272631
20
691.520210
11
259.457839
21
691.456089
0
LINE
8
Layer 1
10
259.457839
20
691.456089
11
260.627834
21
691.209925
0
LINE
8
Layer 1
10
260.627834
20
691.209925
11
260.640164
21
691.206325
0
LINE
8
Layer 1
10
260.640164
20
691.206325
11
262.069365
21
690.648172
0
LINE
8
Layer 1
10
262.069365
20
690.648172
11
263.413475
21
689.839243
0
LINE
8
Layer 1
10
263.413475
20
689.839243
11
264.634797
21
688.814294
0
LINE
8
Layer 1
10
264.634797
20
688.814294
11
265.695635
21
687.608080
0
LINE
8
Layer 1
10
265.695635
20
687.608080
11
265.702835
21
687.600880
0
LINE
8
Layer 1
10
265.702835
20
687.600880
11
266.594466
21
686.235432
0
LINE
8
Layer 1
10
266.594466
20
686.235432
11
267.313792
21
684.735846
0
LINE
8
Layer 1
10
267.313792
20
684.735846
11
267.859133
21
683.132888
0
LINE
8
Layer 1
10
267.859133
20
683.132888
11
268.228811
21
681.457327
0
LINE
8
Layer 1
10
268.228811
20
681.457327
11
268.230611
21
681.453727
0
LINE
8
Layer 1
10
268.230611
20
681.453727
11
268.459417
21
679.292663
0
LINE
8
Layer 1
10
268.459417
20
679.292663
11
268.452101
21
677.076775
0
LINE
8
Layer 1
10
268.452101
20
677.076775
11
268.551693
21
676.135261
0
LINE
8
Layer 1
10
268.551693
20
676.135261
11
268.928085
21
675.290199
0
LINE
8
Layer 1
10
268.928085
20
675.290199
11
269.543729
21
674.599705
0
LINE
8
Layer 1
10
269.543729
20
674.599705
11
270.361082
21
674.121895
0
LINE
8
Layer 1
10
270.361082
20
674.121895
11
279.996472
21
670.379102
0
LINE
8
Layer 1
10
279.996472
20
670.379102
11
284.733432
21
668.447181
0
LINE
8
Layer 1
10
284.733432
20
668.447181
11
289.385885
21
666.403333
0
LINE
8
Layer 1
10
289.385885
20
666.403333
11
289.387685
21
666.403333
0
LINE
8
Layer 1
10
289.387685
20
666.403333
11
296.174413
21
663.039314
0
LINE
8
Layer 1
10
296.174413
20
663.039314
11
299.431276
21
661.186661
0
LINE
8
Layer 1
10
299.431276
20
661.186661
11
302.569526
21
659.187520
0
LINE
8
Layer 1
10
302.569526
20
659.187520
11
306.600695
21
656.142264
0
LINE
8
Layer 1
10
306.600695
20
656.142264
11
308.425263
21
654.481144
0
LINE
8
Layer 1
10
308.425263
20
654.481144
11
310.085930
21
652.709977
0
LINE
8
Layer 1
10
310.085930
20
652.709977
11
311.184649
21
651.315300
0
LINE
8
Layer 1
10
311.184649
20
651.315300
11
312.135594
21
649.862739
0
LINE
8
Layer 1
10
312.135594
20
649.862739
11
312.913807
21
648.361629
0
LINE
8
Layer 1
10
312.913807
20
648.361629
11
313.494329
21
646.821304
0
LINE
8
Layer 1
10
313.494329
20
646.821304
11
313.497929
21
646.808974
0
LINE
8
Layer 1
10
313.497929
20
646.808974
11
313.816769
21
645.494339
0
LINE
8
Layer 1
10
313.816769
20
645.494339
11
313.977091
21
644.145507
0
LINE
8
Layer 1
10
313.977091
20
644.145507
11
313.977813
21
642.785879
0
LINE
8
Layer 1
10
313.977813
20
642.785879
11
313.817852
21
641.438854
0
LINE
8
Layer 1
10
313.817852
20
641.438854
11
313.816052
21
641.428324
0
LINE
8
Layer 1
10
313.816052
20
641.428324
11
313.395357
21
639.726725
0
LINE
8
Layer 1
10
313.395357
20
639.726725
11
312.754748
21
638.042305
0
LINE
8
Layer 1
10
312.754748
20
638.042305
11
311.921891
21
636.388004
0
LINE
8
Layer 1
10
311.921891
20
636.388004
11
310.924451
21
634.776766
0
LINE
8
Layer 1
10
310.924451
20
634.776766
11
308.310764
21
631.444745
0
LINE
8
Layer 1
10
308.310764
20
631.444745
11
305.257268
21
628.344925
0
LINE
8
Layer 1
10
305.257268
20
628.344925
11
305.012927
21
628.090045
0
LINE
8
Layer 1
10
305.012927
20
628.090045
11
301.699035
21
624.012671
0
LINE
8
Layer 1
10
301.699035
20
624.012671
11
300.120028
21
621.819906
0
LINE
8
Layer 1
10
300.120028
20
621.819906
11
298.651403
21
619.490824
0
LINE
8
Layer 1
10
298.651403
20
619.490824
11
298.647803
21
619.481824
0
LINE
8
Layer 1
10
298.647803
20
619.481824
11
297.631784
21
617.560531
0
LINE
8
Layer 1
10
297.631784
20
617.560531
11
297.341758
21
616.405320
0
LINE
8
Layer 1
10
297.341758
20
616.405320
11
297.511258
21
615.268017
0
LINE
8
Layer 1
10
297.511258
20
615.268017
11
298.094782
21
614.277215
0
LINE
8
Layer 1
10
298.094782
20
614.277215
11
299.046827
21
613.561507
0
LINE
8
Layer 1
10
299.046827
20
613.561507
11
300.202038
21
613.271481
0
LINE
8
Layer 1
10
300.202038
20
613.271481
11
301.339341
21
613.440981
0
LINE
8
Layer 1
10
301.339341
20
613.440981
11
302.330143
21
614.024505
0
LINE
8
Layer 1
10
302.330143
20
614.024505
11
303.045851
21
614.976550
0
LINE
8
Layer 1
10
303.045851
20
614.976550
11
303.838625
21
616.474204
0
LINE
8
Layer 1
10
303.838625
20
616.474204
11
303.842225
21
616.477804
0
LINE
8
Layer 1
10
303.842225
20
616.477804
11
303.844025
21
616.483204
0
LINE
8
Layer 1
10
303.844025
20
616.483204
11
305.084275
21
618.445187
0
LINE
8
Layer 1
10
305.084275
20
618.445187
11
306.470945
21
620.368549
0
LINE
8
Layer 1
10
306.470945
20
620.368549
11
309.555164
21
624.168358
0
LINE
8
Layer 1
10
309.555164
20
624.168358
11
312.891958
21
627.577367
0
LINE
8
Layer 1
10
312.891958
20
627.577367
11
314.447006
21
629.436937
0
LINE
8
Layer 1
10
314.447006
20
629.436937
11
315.893837
21
631.417579
0
LINE
8
Layer 1
10
315.893837
20
631.417579
11
315.895637
21
631.419379
0
LINE
8
Layer 1
10
315.895637
20
631.419379
11
317.151023
21
633.444245
0
LINE
8
Layer 1
10
317.151023
20
633.444245
11
318.244622
21
635.614308
0
LINE
8
Layer 1
10
318.244622
20
635.614308
11
319.120418
21
637.926800
0
LINE
8
Layer 1
10
319.120418
20
637.926800
11
319.722392
21
640.378951
0
LINE
8
Layer 1
10
319.722392
20
640.378951
11
319.967665
21
642.434906
0
LINE
8
Layer 1
10
319.967665
20
642.434906
11
319.967434
21
644.501585
0
LINE
8
Layer 1
10
319.967434
20
644.501585
11
319.722074
21
646.554799
0
LINE
8
Layer 1
10
319.722074
20
646.554799
11
319.231964
21
648.570355
0
LINE
8
Layer 1
10
319.231964
20
648.570355
11
318.390199
21
650.814166
0
LINE
8
Layer 1
10
318.390199
20
650.814166
11
317.311930
21
652.900864
0
LINE
8
Layer 1
10
317.311930
20
652.900864
11
316.046266
21
654.832805
0
LINE
8
Layer 1
10
316.046266
20
654.832805
11
314.642315
21
656.612350
0
LINE
8
Layer 1
10
314.642315
20
656.612350
11
314.640515
21
656.615950
0
LINE
8
Layer 1
10
314.640515
20
656.615950
11
312.628617
21
658.764747
0
LINE
8
Layer 1
10
312.628617
20
658.764747
11
310.482993
21
660.720199
0
LINE
8
Layer 1
10
310.482993
20
660.720199
11
308.241716
21
662.507023
0
LINE
8
Layer 1
10
308.241716
20
662.507023
11
305.942861
21
664.149940
0
LINE
8
Layer 1
10
305.942861
20
664.149940
11
305.935661
21
664.155340
0
LINE
8
Layer 1
10
305.935661
20
664.155340
11
302.522182
21
666.330633
0
LINE
8
Layer 1
10
302.522182
20
666.330633
11
299.027876
21
668.318787
0
LINE
8
Layer 1
10
299.027876
20
668.318787
11
291.894257
21
671.854552
0
LINE
8
Layer 1
10
291.894257
20
671.854552
11
283.114930
21
675.596768
0
LINE
8
Layer 1
10
283.114930
20
675.596768
11
274.326680
21
679.019398
0
LINE
8
Layer 1
10
274.326680
20
679.019398
11
274.297906
21
680.725699
0
LINE
8
Layer 1
10
274.297906
20
680.725699
11
274.149137
21
682.436590
0
LINE
8
Layer 1
10
274.149137
20
682.436590
11
274.149137
21
682.440190
0
LINE
8
Layer 1
10
274.149137
20
682.440190
11
273.641000
21
684.746043
0
LINE
8
Layer 1
10
273.641000
20
684.746043
11
272.871875
21
687.005150
0
LINE
8
Layer 1
10
272.871875
20
687.005150
11
271.825123
21
689.177724
0
LINE
8
Layer 1
10
271.825123
20
689.177724
11
270.484103
21
691.223983
0
LINE
8
Layer 1
10
270.484103
20
691.223983
11
268.830171
21
693.109495
0
LINE
8
Layer 1
10
268.830171
20
693.109495
11
266.898809
21
694.732550
0
LINE
8
Layer 1
10
266.898809
20
694.732550
11
264.716637
21
696.037454
0
LINE
8
Layer 1
10
264.716637
20
696.037454
11
262.310276
21
696.968512
0
LINE
8
Layer 1
10
262.310276
20
696.968512
11
260.243627
21
697.408862
0
LINE
8
Layer 1
10
260.243627
20
697.408862
11
258.123161
21
697.527493
0
LINE
8
Layer 1
10
258.123161
20
697.527493
11
258.122945
21
697.527502
0
LINE
8
Layer 1
10
177.680171
20
690.341569
11
176.523320
21
690.058044
0
LINE
8
Layer 1
10
176.523320
20
690.058044
11
175.597084
21
689.376626
0
LINE
8
Layer 1
10
175.597084
20
689.376626
11
174.993886
21
688.397649
0
LINE
8
Layer 1
10
174.993886
20
688.397649
11
174.806147
21
687.221449
0
LINE
8
Layer 1
10
174.806147
20
687.221449
11
175.191984
21
679.671185
0
LINE
8
Layer 1
10
175.191984
20
679.671185
11
175.728654
21
672.130495
0
LINE
8
Layer 1
10
175.728654
20
672.130495
11
176.415486
21
664.602241
0
LINE
8
Layer 1
10
176.415486
20
664.602241
11
177.251810
21
657.089284
0
LINE
8
Layer 1
10
177.251810
20
657.089284
11
179.370243
21
642.120706
0
LINE
8
Layer 1
10
179.370243
20
642.120706
11
182.078585
21
627.247653
0
LINE
8
Layer 1
10
182.078585
20
627.247653
11
185.371463
21
612.493016
0
LINE
8
Layer 1
10
185.371463
20
612.493016
11
189.243507
21
597.879688
0
LINE
8
Layer 1
10
189.243507
20
597.879688
11
193.689348
21
583.430559
0
LINE
8
Layer 1
10
193.689348
20
583.430559
11
198.703613
21
569.168521
0
LINE
8
Layer 1
10
198.703613
20
569.168521
11
199.320034
21
568.173233
0
LINE
8
Layer 1
10
199.320034
20
568.173233
11
200.270453
21
567.489657
0
LINE
8
Layer 1
10
200.270453
20
567.489657
11
201.410135
21
567.221891
0
LINE
8
Layer 1
10
201.410135
20
567.221891
11
202.565522
21
567.410713
0
LINE
8
Layer 1
10
202.565522
20
567.410713
11
203.576102
21
568.040764
0
LINE
8
Layer 1
10
203.576102
20
568.040764
11
204.243603
21
568.976867
0
LINE
8
Layer 1
10
204.243603
20
568.976867
11
204.511518
21
570.094931
0
LINE
8
Layer 1
10
204.511518
20
570.094931
11
204.323339
21
571.270867
0
LINE
8
Layer 1
10
204.323339
20
571.270867
11
199.388131
21
585.308427
0
LINE
8
Layer 1
10
199.388131
20
585.308427
11
195.012309
21
599.530898
0
LINE
8
Layer 1
10
195.012309
20
599.530898
11
191.201186
21
613.915400
0
LINE
8
Layer 1
10
191.201186
20
613.915400
11
187.960077
21
628.439053
0
LINE
8
Layer 1
10
187.960077
20
628.439053
11
185.294294
21
643.078976
0
LINE
8
Layer 1
10
185.294294
20
643.078976
11
183.209153
21
657.812291
0
LINE
8
Layer 1
10
183.209153
20
657.812291
11
181.709965
21
672.616116
0
LINE
8
Layer 1
10
181.709965
20
672.616116
11
180.802046
21
687.467572
0
LINE
8
Layer 1
10
180.802046
20
687.467572
11
180.526549
21
688.605489
0
LINE
8
Layer 1
10
180.526549
20
688.605489
11
179.836481
21
689.551301
0
LINE
8
Layer 1
10
179.836481
20
689.551301
11
178.836943
21
690.160954
0
LINE
8
Layer 1
10
178.836943
20
690.160954
11
177.680171
21
690.341596
0
LINE
8
Layer 1
10
177.680171
20
690.341596
11
177.680171
21
690.341569
0
LINE
8
Layer 1
10
397.018262
20
685.150747
11
395.940474
21
684.848731
0
LINE
8
Layer 1
10
395.940474
20
684.848731
11
394.999466
21
684.376785
0
LINE
8
Layer 1
10
394.999466
20
684.376785
11
394.192464
21
683.776782
0
LINE
8
Layer 1
10
394.192464
20
683.776782
11
393.516695
21
683.090593
0
LINE
8
Layer 1
10
393.516695
20
683.090593
11
393.504365
21
683.074753
0
LINE
8
Layer 1
10
393.504365
20
683.074753
11
392.587069
21
681.775014
0
LINE
8
Layer 1
10
392.587069
20
681.775014
11
391.938222
21
680.466110
0
LINE
8
Layer 1
10
391.938222
20
680.466110
11
391.152413
21
678.038623
0
LINE
8
Layer 1
10
391.152413
20
678.038623
11
391.138373
21
677.980573
0
LINE
8
Layer 1
10
391.138373
20
677.980573
11
390.552366
21
675.171576
0
LINE
8
Layer 1
10
390.552366
20
675.171576
11
390.153052
21
672.405415
0
LINE
8
Layer 1
10
390.153052
20
672.405415
11
389.623133
21
667.062808
0
LINE
8
Layer 1
10
389.623133
20
667.062808
11
389.623133
21
667.055608
0
LINE
8
Layer 1
10
389.623133
20
667.055608
11
389.116883
21
661.771627
0
LINE
8
Layer 1
10
389.116883
20
661.771627
11
388.127806
21
662.284418
0
LINE
8
Layer 1
10
388.127806
20
662.284418
11
387.019811
21
662.400925
0
LINE
8
Layer 1
10
387.019811
20
662.400925
11
386.116905
21
661.655677
0
LINE
8
Layer 1
10
386.116905
20
661.655677
11
385.567993
21
660.621594
0
LINE
8
Layer 1
10
385.567993
20
660.621594
11
385.456669
21
659.456159
0
LINE
8
Layer 1
10
385.456669
20
659.456159
11
385.799888
21
658.336858
0
LINE
8
Layer 1
10
385.799888
20
658.336858
11
387.117633
21
655.813663
0
LINE
8
Layer 1
10
387.117633
20
655.813663
11
388.276652
21
653.318305
0
LINE
8
Layer 1
10
388.276652
20
653.318305
11
388.781802
21
652.512256
0
LINE
8
Layer 1
10
388.781802
20
652.512256
11
389.495034
21
651.916533
0
LINE
8
Layer 1
10
389.495034
20
651.916533
11
390.356187
21
651.567247
0
LINE
8
Layer 1
10
390.356187
20
651.567247
11
391.305101
21
651.500509
0
LINE
8
Layer 1
10
391.305101
20
651.500509
11
392.227315
21
651.733776
0
LINE
8
Layer 1
10
392.227315
20
651.733776
11
393.013250
21
652.229650
0
LINE
8
Layer 1
10
393.013250
20
652.229650
11
393.610068
21
652.941966
0
LINE
8
Layer 1
10
393.610068
20
652.941966
11
393.964931
21
653.824555
0
LINE
8
Layer 1
10
393.964931
20
653.824555
11
394.581331
21
657.064954
0
LINE
8
Layer 1
10
394.581331
20
657.064954
11
395.006948
21
660.265805
0
LINE
8
Layer 1
10
395.006948
20
660.265805
11
395.596181
21
666.489598
0
LINE
8
Layer 1
10
395.596181
20
666.489598
11
395.596181
21
666.496798
0
LINE
8
Layer 1
10
395.596181
20
666.496798
11
396.116541
21
671.669869
0
LINE
8
Layer 1
10
396.116541
20
671.669869
11
396.468379
21
674.132664
0
LINE
8
Layer 1
10
396.468379
20
674.132664
11
396.954974
21
676.496995
0
LINE
8
Layer 1
10
396.954974
20
676.496995
11
397.494364
21
678.138695
0
LINE
8
Layer 1
10
397.494364
20
678.138695
11
398.092277
21
679.207543
0
LINE
8
Layer 1
10
398.092277
20
679.207543
11
398.078237
21
679.193503
0
LINE
8
Layer 1
10
398.078237
20
679.193503
11
398.159549
21
679.265150
0
LINE
8
Layer 1
10
398.159549
20
679.265150
11
398.062397
21
679.244443
0
LINE
8
Layer 1
10
398.062397
20
679.244443
11
398.085257
21
679.248043
0
LINE
8
Layer 1
10
398.085257
20
679.248043
11
398.756738
21
679.037101
0
LINE
8
Layer 1
10
398.756738
20
679.037101
11
400.465895
21
677.928831
0
LINE
8
Layer 1
10
400.465895
20
677.928831
11
402.265334
21
676.328317
0
LINE
8
Layer 1
10
402.265334
20
676.328317
11
404.786541
21
673.614329
0
LINE
8
Layer 1
10
404.786541
20
673.614329
11
407.197757
21
670.666399
0
LINE
8
Layer 1
10
407.197757
20
670.666399
11
407.452637
21
670.381639
0
LINE
8
Layer 1
10
407.452637
20
670.381639
11
409.616452
21
667.849553
0
LINE
8
Layer 1
10
409.616452
20
667.849553
11
411.727637
21
664.869139
0
LINE
8
Layer 1
10
411.727637
20
664.869139
11
411.733037
21
664.863739
0
LINE
8
Layer 1
10
411.733037
20
664.863739
11
415.094872
21
659.653033
0
LINE
8
Layer 1
10
415.094872
20
659.653033
11
418.368173
21
654.324376
0
LINE
8
Layer 1
10
418.368173
20
654.324376
11
425.020340
21
643.546744
0
LINE
8
Layer 1
10
425.020340
20
643.546744
11
425.046710
21
643.508044
0
LINE
8
Layer 1
10
425.046710
20
643.508044
11
427.200048
21
640.286493
0
LINE
8
Layer 1
10
427.200048
20
640.286493
11
428.433669
21
638.629180
0
LINE
8
Layer 1
10
428.433669
20
638.629180
11
429.838508
21
636.998866
0
LINE
8
Layer 1
10
429.838508
20
636.998866
11
430.009013
21
636.831871
0
LINE
8
Layer 1
10
430.009013
20
636.831871
11
430.855652
21
636.008589
0
LINE
8
Layer 1
10
430.855652
20
636.008589
11
431.793334
21
635.485294
0
LINE
8
Layer 1
10
431.793334
20
635.485294
11
433.150220
21
635.170741
0
LINE
8
Layer 1
10
433.150220
20
635.170741
11
433.466633
21
635.160211
0
LINE
8
Layer 1
10
433.466633
20
635.160211
11
434.453642
21
635.351642
0
LINE
8
Layer 1
10
434.453642
20
635.351642
11
435.323748
21
635.802919
0
LINE
8
Layer 1
10
435.323748
20
635.802919
11
436.014563
21
636.384599
0
LINE
8
Layer 1
10
436.014563
20
636.384599
11
436.463696
21
636.967240
0
LINE
8
Layer 1
10
436.463696
20
636.967240
11
436.861613
21
637.894104
0
LINE
8
Layer 1
10
436.861613
20
637.894104
11
436.992797
21
638.559817
0
LINE
8
Layer 1
10
436.992797
20
638.559817
11
437.001797
21
638.628397
0
LINE
8
Layer 1
10
437.001797
20
638.628397
11
437.081116
21
640.043925
0
LINE
8
Layer 1
10
437.081116
20
640.043925
11
437.004856
21
641.322972
0
LINE
8
Layer 1
10
437.004856
20
641.322972
11
436.687148
21
643.453585
0
LINE
8
Layer 1
10
436.687148
20
643.453585
11
436.673108
21
643.530895
0
LINE
8
Layer 1
10
436.673108
20
643.530895
11
435.714684
21
648.099465
0
LINE
8
Layer 1
10
435.714684
20
648.099465
11
434.593613
21
652.529140
0
LINE
8
Layer 1
10
434.593613
20
652.529140
11
434.670923
21
652.117813
0
LINE
8
Layer 1
10
434.670923
20
652.117813
11
434.300382
21
654.270958
0
LINE
8
Layer 1
10
434.300382
20
654.270958
11
433.748951
21
656.316188
0
LINE
8
Layer 1
10
433.748951
20
656.316188
11
432.327755
21
660.103549
0
LINE
8
Layer 1
10
432.327755
20
660.103549
11
432.322355
21
660.117589
0
LINE
8
Layer 1
10
432.322355
20
660.117589
11
430.007321
21
664.923445
0
LINE
8
Layer 1
10
430.007321
20
664.923445
11
429.269572
21
665.832329
0
LINE
8
Layer 1
10
429.269572
20
665.832329
11
428.240152
21
666.389678
0
LINE
8
Layer 1
10
428.240152
20
666.389678
11
427.075800
21
666.510629
0
LINE
8
Layer 1
10
427.075800
20
666.510629
11
425.953802
21
666.176767
0
LINE
8
Layer 1
10
425.953802
20
666.176767
11
425.031560
21
665.423520
0
LINE
8
Layer 1
10
425.031560
20
665.423520
11
424.488406
21
664.410334
0
LINE
8
Layer 1
10
424.488406
20
664.410334
11
424.364619
21
663.267426
0
LINE
8
Layer 1
10
424.364619
20
663.267426
11
424.700480
21
662.125012
0
LINE
8
Layer 1
10
424.700480
20
662.125012
11
426.801071
21
657.765637
0
LINE
8
Layer 1
10
426.801071
20
657.765637
11
428.014687
21
654.528480
0
LINE
8
Layer 1
10
428.014687
20
654.528480
11
428.442374
21
652.955000
0
LINE
8
Layer 1
10
428.442374
20
652.955000
11
428.711807
21
651.412897
0
LINE
8
Layer 1
10
428.711807
20
651.412897
11
428.790917
21
651.003334
0
LINE
8
Layer 1
10
428.790917
20
651.003334
11
429.588965
21
647.559772
0
LINE
8
Layer 1
10
429.588965
20
647.559772
11
423.255170
21
657.854894
0
LINE
8
Layer 1
10
423.255170
20
657.854894
11
420.045841
21
663.060699
0
LINE
8
Layer 1
10
420.045841
20
663.060699
11
416.695412
21
668.238685
0
LINE
8
Layer 1
10
416.695412
20
668.238685
11
416.670842
21
668.272075
0
LINE
8
Layer 1
10
416.670842
20
668.272075
11
414.418699
21
671.461511
0
LINE
8
Layer 1
10
414.418699
20
671.461511
11
413.126936
21
673.079043
0
LINE
8
Layer 1
10
413.126936
20
673.079043
11
411.664592
21
674.654686
0
LINE
8
Layer 1
10
411.664592
20
674.654686
11
411.919472
21
674.369926
0
LINE
8
Layer 1
10
411.919472
20
674.369926
11
409.326449
21
677.540175
0
LINE
8
Layer 1
10
409.326449
20
677.540175
11
406.466741
21
680.613676
0
LINE
8
Layer 1
10
406.466741
20
680.613676
11
406.442081
21
680.636536
0
LINE
8
Layer 1
10
406.442081
20
680.636536
11
404.190434
21
682.649907
0
LINE
8
Layer 1
10
404.190434
20
682.649907
11
402.852265
21
683.610192
0
LINE
8
Layer 1
10
402.852265
20
683.610192
11
401.332124
21
684.459772
0
LINE
8
Layer 1
10
401.332124
20
684.459772
11
401.300444
21
684.473812
0
LINE
8
Layer 1
10
401.300444
20
684.473812
11
399.412733
21
685.117563
0
LINE
8
Layer 1
10
399.412733
20
685.117563
11
398.274503
21
685.248259
0
LINE
8
Layer 1
10
398.274503
20
685.248259
11
397.018415
21
685.150567
0
LINE
8
Layer 1
10
397.018415
20
685.150567
11
397.018262
21
685.150747
0
LINE
8
Layer 1
10
247.952243
20
684.702502
11
246.777866
21
684.504058
0
LINE
8
Layer 1
10
246.777866
20
684.504058
11
245.804464
21
683.892010
0
LINE
8
Layer 1
10
245.804464
20
683.892010
11
245.131514
21
682.959673
0
LINE
8
Layer 1
10
245.131514
20
682.959673
11
244.858493
21
681.800362
0
LINE
8
Layer 1
10
244.858493
20
681.800362
11
244.875457
21
679.575227
0
LINE
8
Layer 1
10
244.875457
20
679.575227
11
245.050094
21
677.391766
0
LINE
8
Layer 1
10
245.050094
20
677.391766
11
245.074754
21
677.212468
0
LINE
8
Layer 1
10
245.074754
20
677.212468
11
246.335050
21
669.741950
0
LINE
8
Layer 1
10
246.335050
20
669.741950
11
247.405610
21
662.300944
0
LINE
8
Layer 1
10
247.405610
20
662.300944
11
247.407410
21
662.291944
0
LINE
8
Layer 1
10
247.407410
20
662.291944
11
248.059190
21
656.508798
0
LINE
8
Layer 1
10
248.059190
20
656.508798
11
248.525331
21
650.715495
0
LINE
8
Layer 1
10
248.525331
20
650.715495
11
248.790667
21
644.917984
0
LINE
8
Layer 1
10
248.790667
20
644.917984
11
248.840030
21
639.122218
0
LINE
8
Layer 1
10
248.840030
20
639.122218
11
248.840030
21
639.116818
0
LINE
8
Layer 1
10
248.840030
20
639.116818
11
248.549729
21
630.825954
0
LINE
8
Layer 1
10
248.549729
20
630.825954
11
247.888304
21
622.525622
0
LINE
8
Layer 1
10
247.888304
20
622.525622
11
246.942928
21
614.217861
0
LINE
8
Layer 1
10
246.942928
20
614.217861
11
245.800775
21
605.904712
0
LINE
8
Layer 1
10
245.800775
20
605.904712
11
245.769095
21
605.447683
0
LINE
8
Layer 1
10
245.769095
20
605.447683
11
245.920928
21
600.211485
0
LINE
8
Layer 1
10
245.920928
20
600.211485
11
246.285893
21
594.986938
0
LINE
8
Layer 1
10
246.285893
20
594.986938
11
247.318426
21
586.578370
0
LINE
8
Layer 1
10
247.318426
20
586.578370
11
248.877921
21
578.262484
0
LINE
8
Layer 1
10
248.877921
20
578.262484
11
250.931295
21
570.062487
0
LINE
8
Layer 1
10
250.931295
20
570.062487
11
253.445465
21
562.001587
0
LINE
8
Layer 1
10
253.445465
20
562.001587
11
254.033417
21
560.989036
0
LINE
8
Layer 1
10
254.033417
20
560.989036
11
254.964181
21
560.278665
0
LINE
8
Layer 1
10
254.964181
20
560.278665
11
256.095976
21
559.978685
0
LINE
8
Layer 1
10
256.095976
20
559.978685
11
257.256398
21
560.134789
0
LINE
8
Layer 1
10
257.256398
20
560.134789
11
258.284641
21
560.735928
0
LINE
8
Layer 1
10
258.284641
20
560.735928
11
258.978542
21
561.652831
0
LINE
8
Layer 1
10
258.978542
20
561.652831
11
259.278070
21
562.763007
0
LINE
8
Layer 1
10
259.278070
20
562.763007
11
259.123196
21
563.943967
0
LINE
8
Layer 1
10
259.123196
20
563.943967
11
256.707900
21
571.687146
0
LINE
8
Layer 1
10
256.707900
20
571.687146
11
254.738893
21
579.547732
0
LINE
8
Layer 1
10
254.738893
20
579.547732
11
253.246413
21
587.501651
0
LINE
8
Layer 1
10
253.246413
20
587.501651
11
252.260696
21
595.524832
0
LINE
8
Layer 1
10
252.260696
20
595.524832
11
252.260696
21
595.526632
0
LINE
8
Layer 1
10
252.260696
20
595.526632
11
251.919522
21
600.433585
0
LINE
8
Layer 1
10
251.919522
20
600.433585
11
251.775542
21
605.349286
0
LINE
8
Layer 1
10
251.775542
20
605.349286
11
252.919041
21
613.692043
0
LINE
8
Layer 1
10
252.919041
20
613.692043
11
253.872928
21
622.091258
0
LINE
8
Layer 1
10
253.872928
20
622.091258
11
254.544528
21
630.546000
0
LINE
8
Layer 1
10
254.544528
20
630.546000
11
254.841167
21
639.055339
0
LINE
8
Layer 1
10
254.841167
20
639.055339
11
254.841167
21
639.058939
0
LINE
8
Layer 1
10
254.841167
20
639.058939
11
254.789572
21
645.083054
0
LINE
8
Layer 1
10
254.789572
20
645.083054
11
254.513944
21
651.092546
0
LINE
8
Layer 1
10
254.513944
20
651.092546
11
254.031467
21
657.081573
0
LINE
8
Layer 1
10
254.031467
20
657.081573
11
253.359326
21
663.044290
0
LINE
8
Layer 1
10
253.359326
20
663.044290
11
252.272853
21
670.605147
0
LINE
8
Layer 1
10
252.272853
20
670.605147
11
251.012648
21
678.080617
0
LINE
8
Layer 1
10
251.012648
20
678.080617
11
250.854446
21
681.606790
0
LINE
8
Layer 1
10
250.854446
20
681.606790
11
250.663276
21
682.761807
0
LINE
8
Layer 1
10
250.663276
20
682.761807
11
250.044588
21
683.755706
0
LINE
8
Layer 1
10
250.044588
20
683.755706
11
249.092602
21
684.437127
0
LINE
8
Layer 1
10
249.092602
20
684.437127
11
247.952297
21
684.702295
0
LINE
8
Layer 1
10
247.952297
20
684.702295
11
247.952243
21
684.702502
0
LINE
8
Layer 1
10
364.271969
20
684.074968
11
363.153249
21
683.732738
0
LINE
8
Layer 1
10
363.153249
20
683.732738
11
362.250488
21
682.988641
0
LINE
8
Layer 1
10
362.250488
20
682.988641
11
362.058887
21
682.754848
0
LINE
8
Layer 1
10
362.058887
20
682.754848
11
362.044847
21
682.737298
0
LINE
8
Layer 1
10
362.044847
20
682.737298
11
361.608914
21
682.197649
0
LINE
8
Layer 1
10
361.608914
20
682.197649
11
361.598384
21
682.185319
0
LINE
8
Layer 1
10
361.598384
20
682.185319
11
357.940091
21
677.255183
0
LINE
8
Layer 1
10
357.940091
20
677.255183
11
356.256049
21
674.629693
0
LINE
8
Layer 1
10
356.256049
20
674.629693
11
354.716552
21
671.877502
0
LINE
8
Layer 1
10
354.716552
20
671.877502
11
354.709352
21
671.866972
0
LINE
8
Layer 1
10
354.709352
20
671.866972
11
353.756101
21
669.867113
0
LINE
8
Layer 1
10
353.756101
20
669.867113
11
352.918113
21
667.757530
0
LINE
8
Layer 1
10
352.918113
20
667.757530
11
352.248450
21
665.537043
0
LINE
8
Layer 1
10
352.248450
20
665.537043
11
351.800174
21
663.204472
0
LINE
8
Layer 1
10
351.800174
20
663.204472
11
351.652926
21
661.417870
0
LINE
8
Layer 1
10
351.652926
20
661.417870
11
351.702058
21
659.598593
0
LINE
8
Layer 1
10
351.702058
20
659.598593
11
351.972074
21
657.770827
0
LINE
8
Layer 1
10
351.972074
20
657.770827
11
352.487477
21
655.958761
0
LINE
8
Layer 1
10
352.487477
20
655.958761
11
353.270166
21
654.165897
0
LINE
8
Layer 1
10
353.270166
20
654.165897
11
354.264058
21
652.529342
0
LINE
8
Layer 1
10
354.264058
20
652.529342
11
355.429621
21
651.050515
0
LINE
8
Layer 1
10
355.429621
20
651.050515
11
356.727323
21
649.730833
0
LINE
8
Layer 1
10
356.727323
20
649.730833
11
358.531467
21
648.242754
0
LINE
8
Layer 1
10
358.531467
20
648.242754
11
360.427449
21
646.965964
0
LINE
8
Layer 1
10
360.427449
20
646.965964
11
362.378398
21
645.867947
0
LINE
8
Layer 1
10
362.378398
20
645.867947
11
364.347443
21
644.916184
0
LINE
8
Layer 1
10
364.347443
20
644.916184
11
364.357973
21
644.910784
0
LINE
8
Layer 1
10
364.357973
20
644.910784
11
367.340247
21
643.691452
0
LINE
8
Layer 1
10
367.340247
20
643.691452
11
370.355496
21
642.657434
0
LINE
8
Layer 1
10
370.355496
20
642.657434
11
376.409531
21
641.004928
0
LINE
8
Layer 1
10
376.409531
20
641.004928
11
376.464071
21
640.992598
0
LINE
8
Layer 1
10
376.464071
20
640.992598
11
379.424353
21
640.315932
0
LINE
8
Layer 1
10
379.424353
20
640.315932
11
381.076583
21
640.023611
0
LINE
8
Layer 1
10
381.076583
20
640.023611
11
382.853720
21
639.851776
0
LINE
8
Layer 1
10
382.853720
20
639.851776
11
382.793960
21
639.855376
0
LINE
8
Layer 1
10
382.793960
20
639.855376
11
385.057000
21
639.616192
0
LINE
8
Layer 1
10
385.057000
20
639.616192
11
386.749037
21
639.159280
0
LINE
8
Layer 1
10
386.749037
20
639.159280
11
388.798652
21
637.508689
0
LINE
8
Layer 1
10
388.798652
20
637.508689
11
391.765989
21
634.805494
0
LINE
8
Layer 1
10
391.765989
20
634.805494
11
393.050019
21
633.423679
0
LINE
8
Layer 1
10
393.050019
20
633.423679
11
394.152941
21
631.992679
0
LINE
8
Layer 1
10
394.152941
20
631.992679
11
394.580090
21
631.099708
0
LINE
8
Layer 1
10
394.580090
20
631.099708
11
392.834020
21
630.943411
0
LINE
8
Layer 1
10
392.834020
20
630.943411
11
390.763883
21
631.096108
0
LINE
8
Layer 1
10
390.763883
20
631.096108
11
387.147965
21
631.853332
0
LINE
8
Layer 1
10
387.147965
20
631.853332
11
383.560364
21
633.043771
0
LINE
8
Layer 1
10
383.560364
20
633.043771
11
383.556764
21
633.045571
0
LINE
8
Layer 1
10
383.556764
20
633.045571
11
379.326036
21
634.997633
0
LINE
8
Layer 1
10
379.326036
20
634.997633
11
377.343754
21
636.162431
0
LINE
8
Layer 1
10
377.343754
20
636.162431
11
375.472586
21
637.461196
0
LINE
8
Layer 1
10
375.472586
20
637.461196
11
374.751875
21
637.863739
0
LINE
8
Layer 1
10
374.751875
20
637.863739
11
370.820485
21
639.212003
0
LINE
8
Layer 1
10
370.820485
20
639.212003
11
366.862817
21
640.271941
0
LINE
8
Layer 1
10
366.862817
20
640.271941
11
366.773177
21
640.291291
0
LINE
8
Layer 1
10
366.773177
20
640.291291
11
365.144878
21
640.542189
0
LINE
8
Layer 1
10
365.144878
20
640.542189
11
363.511359
21
640.629717
0
LINE
8
Layer 1
10
363.511359
20
640.629717
11
361.885409
21
640.560339
0
LINE
8
Layer 1
10
361.885409
20
640.560339
11
360.279821
21
640.340521
0
LINE
8
Layer 1
10
360.279821
20
640.340521
11
359.192085
21
639.907786
0
LINE
8
Layer 1
10
359.192085
20
639.907786
11
358.352779
21
639.091701
0
LINE
8
Layer 1
10
358.352779
20
639.091701
11
357.889705
21
638.016531
0
LINE
8
Layer 1
10
357.889705
20
638.016531
11
357.873374
21
636.845992
0
LINE
8
Layer 1
10
357.873374
20
636.845992
11
358.316775
21
635.740729
0
LINE
8
Layer 1
10
358.316775
20
635.740729
11
359.121556
21
634.919662
0
LINE
8
Layer 1
10
359.121556
20
634.919662
11
360.175440
21
634.460149
0
LINE
8
Layer 1
10
360.175440
20
634.460149
11
361.366148
21
634.439545
0
LINE
8
Layer 1
10
361.366148
20
634.439545
11
363.471558
21
634.626355
0
LINE
8
Layer 1
10
363.471558
20
634.626355
11
365.539196
21
634.414975
0
LINE
8
Layer 1
10
365.539196
20
634.414975
11
369.031584
21
633.474968
0
LINE
8
Layer 1
10
369.031584
20
633.474968
11
372.401696
21
632.324941
0
LINE
8
Layer 1
10
372.401696
20
632.324941
11
374.548439
21
630.876858
0
LINE
8
Layer 1
10
374.548439
20
630.876858
11
376.770296
21
629.584533
0
LINE
8
Layer 1
10
376.770296
20
629.584533
11
379.053456
21
628.444249
0
LINE
8
Layer 1
10
379.053456
20
628.444249
11
381.384110
21
627.452287
0
LINE
8
Layer 1
10
381.384110
20
627.452287
11
381.396440
21
627.448687
0
LINE
8
Layer 1
10
381.396440
20
627.448687
11
385.571218
21
626.063508
0
LINE
8
Layer 1
10
385.571218
20
626.063508
11
387.739370
21
625.537839
0
LINE
8
Layer 1
10
387.739370
20
625.537839
11
389.958743
21
625.149466
0
LINE
8
Layer 1
10
389.958743
20
625.149466
11
389.992133
21
625.144066
0
LINE
8
Layer 1
10
389.992133
20
625.144066
11
392.868362
21
624.919806
0
LINE
8
Layer 1
10
392.868362
20
624.919806
11
394.435378
21
624.987860
0
LINE
8
Layer 1
10
394.435378
20
624.987860
11
396.070643
21
625.256566
0
LINE
8
Layer 1
10
396.070643
20
625.256566
11
396.118073
21
625.268896
0
LINE
8
Layer 1
10
396.118073
20
625.268896
11
397.890904
21
625.917526
0
LINE
8
Layer 1
10
397.890904
20
625.917526
11
398.830057
21
626.531921
0
LINE
8
Layer 1
10
398.830057
20
626.531921
11
399.716318
21
627.427483
0
LINE
8
Layer 1
10
399.716318
20
627.427483
11
400.320025
21
628.387799
0
LINE
8
Layer 1
10
400.320025
20
628.387799
11
400.672820
21
629.386319
0
LINE
8
Layer 1
10
400.672820
20
629.386319
11
400.810155
21
630.388478
0
LINE
8
Layer 1
10
400.810155
20
630.388478
11
400.767482
21
631.359709
0
LINE
8
Layer 1
10
400.767482
20
631.359709
11
400.512134
21
632.567166
0
LINE
8
Layer 1
10
400.512134
20
632.567166
11
400.117635
21
633.615548
0
LINE
8
Layer 1
10
400.117635
20
633.615548
11
399.174905
21
635.284906
0
LINE
8
Layer 1
10
399.174905
20
635.284906
11
399.136205
21
635.341156
0
LINE
8
Layer 1
10
399.136205
20
635.341156
11
397.642576
21
637.297634
0
LINE
8
Layer 1
10
397.642576
20
637.297634
11
396.027559
21
639.044674
0
LINE
8
Layer 1
10
396.027559
20
639.044674
11
392.681522
21
642.084127
0
LINE
8
Layer 1
10
392.681522
20
642.084127
11
392.662172
21
642.099967
0
LINE
8
Layer 1
10
392.662172
20
642.099967
11
390.039518
21
644.211097
0
LINE
8
Layer 1
10
390.039518
20
644.211097
11
389.492840
21
644.546842
0
LINE
8
Layer 1
10
389.492840
20
644.546842
11
387.785864
21
645.194065
0
LINE
8
Layer 1
10
387.785864
20
645.194065
11
386.143221
21
645.559236
0
LINE
8
Layer 1
10
386.143221
20
645.559236
11
383.205143
21
645.840592
0
LINE
8
Layer 1
10
383.205143
20
645.840592
11
383.143583
21
645.844192
0
LINE
8
Layer 1
10
383.143583
20
645.844192
11
380.645313
21
646.205903
0
LINE
8
Layer 1
10
380.645313
20
646.205903
11
377.761160
21
646.851418
0
LINE
8
Layer 1
10
377.761160
20
646.851418
11
377.752160
21
646.853218
0
LINE
8
Layer 1
10
377.752160
20
646.853218
11
372.140385
21
648.387793
0
LINE
8
Layer 1
10
372.140385
20
648.387793
11
369.436285
21
649.314893
0
LINE
8
Layer 1
10
369.436285
20
649.314893
11
366.820319
21
650.382901
0
LINE
8
Layer 1
10
366.820319
20
650.382901
11
366.814919
21
650.384701
0
LINE
8
Layer 1
10
366.814919
20
650.384701
11
366.807719
21
650.388301
0
LINE
8
Layer 1
10
366.807719
20
650.388301
11
363.561078
21
652.086743
0
LINE
8
Layer 1
10
363.561078
20
652.086743
11
362.103012
21
653.066490
0
LINE
8
Layer 1
10
362.103012
20
653.066490
11
360.785459
21
654.150022
0
LINE
8
Layer 1
10
360.785459
20
654.150022
11
360.783659
21
654.151822
0
LINE
8
Layer 1
10
360.783659
20
654.151822
11
359.189482
21
655.960762
0
LINE
8
Layer 1
10
359.189482
20
655.960762
11
358.587205
21
656.947657
0
LINE
8
Layer 1
10
358.587205
20
656.947657
11
358.138154
21
657.969793
0
LINE
8
Layer 1
10
358.138154
20
657.969793
11
358.132754
21
657.985633
0
LINE
8
Layer 1
10
358.132754
20
657.985633
11
357.682158
21
660.111026
0
LINE
8
Layer 1
10
357.682158
20
660.111026
11
357.746033
21
662.406532
0
LINE
8
Layer 1
10
357.746033
20
662.406532
11
357.746033
21
662.408332
0
LINE
8
Layer 1
10
357.746033
20
662.408332
11
358.071143
21
664.082585
0
LINE
8
Layer 1
10
358.071143
20
664.082585
11
358.581898
21
665.766284
0
LINE
8
Layer 1
10
358.581898
20
665.766284
11
360.052283
21
669.137236
0
LINE
8
Layer 1
10
360.052283
20
669.137236
11
360.054083
21
669.139036
0
LINE
8
Layer 1
10
360.054083
20
669.139036
11
361.398679
21
671.538994
0
LINE
8
Layer 1
10
361.398679
20
671.538994
11
362.902710
21
673.881824
0
LINE
8
Layer 1
10
362.902710
20
673.881824
11
366.280247
21
678.434344
0
LINE
8
Layer 1
10
366.280247
20
678.434344
11
366.290777
21
678.446674
0
LINE
8
Layer 1
10
366.290777
20
678.446674
11
366.709142
21
678.965227
0
LINE
8
Layer 1
10
366.709142
20
678.965227
11
366.893714
21
679.191991
0
LINE
8
Layer 1
10
366.893714
20
679.191991
11
367.443902
21
680.225493
0
LINE
8
Layer 1
10
367.443902
20
680.225493
11
367.556592
21
681.390883
0
LINE
8
Layer 1
10
367.556592
20
681.390883
11
367.214621
21
682.510655
0
LINE
8
Layer 1
10
367.214621
20
682.510655
11
366.470075
21
683.414251
0
LINE
8
Layer 1
10
366.470075
20
683.414251
11
365.436301
21
683.963439
0
LINE
8
Layer 1
10
365.436301
20
683.963439
11
364.271051
21
684.075193
0
LINE
8
Layer 1
10
364.271051
20
684.075193
11
364.271969
21
684.074968
0
LINE
8
Layer 1
10
362.909666
20
631.136689
11
361.822065
21
630.703422
0
LINE
8
Layer 1
10
361.822065
20
630.703422
11
360.983108
21
629.886877
0
LINE
8
Layer 1
10
360.983108
20
629.886877
11
360.515478
21
628.791556
0
LINE
8
Layer 1
10
360.515478
20
628.791556
11
360.504422
21
627.641828
0
LINE
8
Layer 1
10
360.504422
20
627.641828
11
360.925188
21
626.571804
0
LINE
8
Layer 1
10
360.925188
20
626.571804
11
361.753022
21
625.715593
0
LINE
8
Layer 1
10
361.753022
20
625.715593
11
371.185445
21
619.412074
0
LINE
8
Layer 1
10
371.185445
20
619.412074
11
375.346190
21
616.262074
0
LINE
8
Layer 1
10
375.346190
20
616.262074
11
373.760642
21
616.710319
0
LINE
8
Layer 1
10
373.760642
20
616.710319
11
369.473432
21
618.226728
0
LINE
8
Layer 1
10
369.473432
20
618.226728
11
365.173769
21
619.896535
0
LINE
8
Layer 1
10
365.173769
20
619.896535
11
356.398733
21
623.323213
0
LINE
8
Layer 1
10
356.398733
20
623.323213
11
356.391533
21
623.325013
0
LINE
8
Layer 1
10
356.391533
20
623.325013
11
348.838365
21
625.888770
0
LINE
8
Layer 1
10
348.838365
20
625.888770
11
344.935593
21
626.951356
0
LINE
8
Layer 1
10
344.935593
20
626.951356
11
340.938605
21
627.793369
0
LINE
8
Layer 1
10
340.938605
20
627.793369
11
340.935005
21
627.795169
0
LINE
8
Layer 1
10
340.935005
20
627.795169
11
337.875042
21
628.236426
0
LINE
8
Layer 1
10
337.875042
20
628.236426
11
334.752223
21
628.472860
0
LINE
8
Layer 1
10
334.752223
20
628.472860
11
331.585296
21
628.456142
0
LINE
8
Layer 1
10
331.585296
20
628.456142
11
328.393010
21
628.137943
0
LINE
8
Layer 1
10
328.393010
20
628.137943
11
325.843774
21
627.633664
0
LINE
8
Layer 1
10
325.843774
20
627.633664
11
323.344424
21
626.887446
0
LINE
8
Layer 1
10
323.344424
20
626.887446
11
320.920735
21
625.894601
0
LINE
8
Layer 1
10
320.920735
20
625.894601
11
318.598481
21
624.650443
0
LINE
8
Layer 1
10
318.598481
20
624.650443
11
318.596681
21
624.650443
0
LINE
8
Layer 1
10
318.596681
20
624.650443
11
316.148823
21
622.977579
0
LINE
8
Layer 1
10
316.148823
20
622.977579
11
313.922974
21
621.066799
0
LINE
8
Layer 1
10
313.922974
20
621.066799
11
311.916254
21
618.960194
0
LINE
8
Layer 1
10
311.916254
20
618.960194
11
310.125782
21
616.699852
0
LINE
8
Layer 1
10
310.125782
20
616.699852
11
309.682820
21
615.805126
0
LINE
8
Layer 1
10
309.682820
20
615.805126
11
309.116801
21
613.999852
0
LINE
8
Layer 1
10
309.116801
20
613.999852
11
307.833457
21
610.430789
0
LINE
8
Layer 1
10
307.833457
20
610.430789
11
306.314849
21
607.116256
0
LINE
8
Layer 1
10
306.314849
20
607.116256
11
305.516737
21
605.782657
0
LINE
8
Layer 1
10
305.516737
20
605.782657
11
304.787306
21
604.883833
0
LINE
8
Layer 1
10
304.787306
20
604.883833
11
304.780106
21
604.878433
0
LINE
8
Layer 1
10
304.780106
20
604.878433
11
304.231673
21
604.530385
0
LINE
8
Layer 1
10
304.231673
20
604.530385
11
304.201793
21
604.528585
0
LINE
8
Layer 1
10
304.201793
20
604.528585
11
303.832658
21
604.721950
0
LINE
8
Layer 1
10
303.832658
20
604.721950
11
302.770870
21
605.261550
0
LINE
8
Layer 1
10
302.770870
20
605.261550
11
301.624373
21
605.349166
0
LINE
8
Layer 1
10
301.624373
20
605.349166
11
300.528650
21
605.000567
0
LINE
8
Layer 1
10
300.528650
20
605.000567
11
299.619182
21
604.231522
0
LINE
8
Layer 1
10
299.619182
20
604.231522
11
299.084985
21
603.189661
0
LINE
8
Layer 1
10
299.084985
20
603.189661
11
298.990268
21
602.022668
0
LINE
8
Layer 1
10
298.990268
20
602.022668
11
299.349458
21
600.908297
0
LINE
8
Layer 1
10
299.349458
20
600.908297
11
300.107846
21
600.016282
0
LINE
8
Layer 1
10
300.107846
20
600.016282
11
301.045676
21
599.382489
0
LINE
8
Layer 1
10
301.045676
20
599.382489
11
302.116661
21
598.890439
0
LINE
8
Layer 1
10
302.116661
20
598.890439
11
303.309997
21
598.593490
0
LINE
8
Layer 1
10
303.309997
20
598.593490
11
304.614884
21
598.544998
0
LINE
8
Layer 1
10
304.614884
20
598.544998
11
305.912011
21
598.765619
0
LINE
8
Layer 1
10
305.912011
20
598.765619
11
307.053314
21
599.207918
0
LINE
8
Layer 1
10
307.053314
20
599.207918
11
308.041514
21
599.806988
0
LINE
8
Layer 1
10
308.041514
20
599.806988
11
308.879336
21
600.497926
0
LINE
8
Layer 1
10
308.879336
20
600.497926
11
309.777517
21
601.450415
0
LINE
8
Layer 1
10
309.777517
20
601.450415
11
310.500838
21
602.417723
0
LINE
8
Layer 1
10
310.500838
20
602.417723
11
311.582846
21
604.240306
0
LINE
8
Layer 1
10
311.582846
20
604.240306
11
311.602196
21
604.275496
0
LINE
8
Layer 1
10
311.602196
20
604.275496
11
313.404751
21
608.194613
0
LINE
8
Layer 1
10
313.404751
20
608.194613
11
314.815475
21
612.118861
0
LINE
8
Layer 1
10
314.815475
20
612.118861
11
314.817275
21
612.127861
0
LINE
8
Layer 1
10
314.817275
20
612.127861
11
315.240914
21
613.474351
0
LINE
8
Layer 1
10
315.240914
20
613.474351
11
316.662385
21
615.229366
0
LINE
8
Layer 1
10
316.662385
20
615.229366
11
318.212871
21
616.840280
0
LINE
8
Layer 1
10
318.212871
20
616.840280
11
319.889732
21
618.276870
0
LINE
8
Layer 1
10
319.889732
20
618.276870
11
321.690323
21
619.508914
0
LINE
8
Layer 1
10
321.690323
20
619.508914
11
321.699323
21
619.516114
0
LINE
8
Layer 1
10
321.699323
20
619.516114
11
323.467572
21
620.463061
0
LINE
8
Layer 1
10
323.467572
20
620.463061
11
325.337103
21
621.228060
0
LINE
8
Layer 1
10
325.337103
20
621.228060
11
327.284863
21
621.809449
0
LINE
8
Layer 1
10
327.284863
20
621.809449
11
329.287799
21
622.205566
0
LINE
8
Layer 1
10
329.287799
20
622.205566
11
329.293199
21
622.205566
0
LINE
8
Layer 1
10
329.293199
20
622.205566
11
331.886208
21
622.461937
0
LINE
8
Layer 1
10
331.886208
20
622.461937
11
334.531242
21
622.474094
0
LINE
8
Layer 1
10
334.531242
20
622.474094
11
337.209792
21
622.271568
0
LINE
8
Layer 1
10
337.209792
20
622.271568
11
339.903353
21
621.883888
0
LINE
8
Layer 1
10
339.903353
20
621.883888
11
343.521599
21
621.119636
0
LINE
8
Layer 1
10
343.521599
20
621.119636
11
347.125745
21
620.136538
0
LINE
8
Layer 1
10
347.125745
20
620.136538
11
354.312146
21
617.696773
0
LINE
8
Layer 1
10
354.312146
20
617.696773
11
354.319346
21
617.694973
0
LINE
8
Layer 1
10
354.319346
20
617.694973
11
362.960220
21
614.313725
0
LINE
8
Layer 1
10
362.960220
20
614.313725
11
367.376585
21
612.601736
0
LINE
8
Layer 1
10
367.376585
20
612.601736
11
371.904500
21
611.004742
0
LINE
8
Layer 1
10
371.904500
20
611.004742
11
371.932580
21
610.995742
0
LINE
8
Layer 1
10
371.932580
20
610.995742
11
375.829727
21
609.892398
0
LINE
8
Layer 1
10
375.829727
20
609.892398
11
377.905903
21
609.479976
0
LINE
8
Layer 1
10
377.905903
20
609.479976
11
380.071253
21
609.229141
0
LINE
8
Layer 1
10
380.071253
20
609.229141
11
380.087093
21
609.227341
0
LINE
8
Layer 1
10
380.087093
20
609.227341
11
381.560256
21
609.194333
0
LINE
8
Layer 1
10
381.560256
20
609.194333
11
383.105252
21
609.313471
0
LINE
8
Layer 1
10
383.105252
20
609.313471
11
383.773320
21
609.484029
0
LINE
8
Layer 1
10
383.773320
20
609.484029
11
384.377526
21
609.797746
0
LINE
8
Layer 1
10
384.377526
20
609.797746
11
384.895491
21
610.239554
0
LINE
8
Layer 1
10
384.895491
20
610.239554
11
385.304837
21
610.794387
0
LINE
8
Layer 1
10
385.304837
20
610.794387
11
385.576770
21
611.427994
0
LINE
8
Layer 1
10
385.576770
20
611.427994
11
385.696281
21
612.098218
0
LINE
8
Layer 1
10
385.696281
20
612.098218
11
385.661680
21
612.778133
0
LINE
8
Layer 1
10
385.661680
20
612.778133
11
385.471271
21
613.440817
0
LINE
8
Layer 1
10
385.471271
20
613.440817
11
384.785578
21
614.828214
0
LINE
8
Layer 1
10
384.785578
20
614.828214
11
383.984139
21
616.063189
0
LINE
8
Layer 1
10
383.984139
20
616.063189
11
382.221074
21
618.149995
0
LINE
8
Layer 1
10
382.221074
20
618.149995
11
382.201724
21
618.169345
0
LINE
8
Layer 1
10
382.201724
20
618.169345
11
380.371627
21
619.918093
0
LINE
8
Layer 1
10
380.371627
20
619.918093
11
378.472586
21
621.504298
0
LINE
8
Layer 1
10
378.472586
20
621.504298
11
374.616758
21
624.333994
0
LINE
8
Layer 1
10
374.616758
20
624.333994
11
374.606228
21
624.341194
0
LINE
8
Layer 1
10
374.606228
20
624.341194
11
365.154473
21
630.658771
0
LINE
8
Layer 1
10
365.154473
20
630.658771
11
364.079640
21
631.120978
0
LINE
8
Layer 1
10
364.079640
20
631.120978
11
362.909747
21
631.136896
0
LINE
8
Layer 1
10
362.909747
20
631.136896
11
362.909666
21
631.136689
0
LINE
8
Layer 1
10
685.995608
20
604.588444
11
680.836965
21
604.396249
0
LINE
8
Layer 1
10
680.836965
20
604.396249
11
675.726984
21
603.718006
0
LINE
8
Layer 1
10
675.726984
20
603.718006
11
670.705511
21
602.569708
0
LINE
8
Layer 1
10
670.705511
20
602.569708
11
665.812397
21
600.967348
0
LINE
8
Layer 1
10
665.812397
20
600.967348
11
662.909717
21
599.781580
0
LINE
8
Layer 1
10
662.909717
20
599.781580
11
660.079122
21
598.446362
0
LINE
8
Layer 1
10
660.079122
20
598.446362
11
657.324794
21
596.968698
0
LINE
8
Layer 1
10
657.324794
20
596.968698
11
654.650913
21
595.355591
0
LINE
8
Layer 1
10
654.650913
20
595.355591
11
652.061659
21
593.614048
0
LINE
8
Layer 1
10
652.061659
20
593.614048
11
649.561211
21
591.751072
0
LINE
8
Layer 1
10
649.561211
20
591.751072
11
644.843459
21
587.688838
0
LINE
8
Layer 1
10
644.843459
20
587.688838
11
642.464128
21
585.327659
0
LINE
8
Layer 1
10
642.464128
20
585.327659
11
640.201912
21
582.855224
0
LINE
8
Layer 1
10
640.201912
20
582.855224
11
638.061207
21
580.277503
0
LINE
8
Layer 1
10
638.061207
20
580.277503
11
636.046412
21
577.600466
0
LINE
8
Layer 1
10
636.046412
20
577.600466
11
634.161924
21
574.830080
0
LINE
8
Layer 1
10
634.161924
20
574.830080
11
632.412140
21
571.972314
0
LINE
8
Layer 1
10
632.412140
20
571.972314
11
630.801457
21
569.033138
0
LINE
8
Layer 1
10
630.801457
20
569.033138
11
629.334272
21
566.018521
0
LINE
8
Layer 1
10
629.334272
20
566.018521
11
629.064587
21
564.879226
0
LINE
8
Layer 1
10
629.064587
20
564.879226
11
629.251512
21
563.723465
0
LINE
8
Layer 1
10
629.251512
20
563.723465
11
629.866580
21
562.727265
0
LINE
8
Layer 1
10
629.866580
20
562.727265
11
630.816113
21
562.042348
0
LINE
8
Layer 1
10
630.816113
20
562.042348
11
631.975928
21
561.771842
0
LINE
8
Layer 1
10
631.975928
20
561.771842
11
633.110118
21
561.960407
0
LINE
8
Layer 1
10
633.110118
20
561.960407
11
634.090907
21
562.560403
0
LINE
8
Layer 1
10
634.090907
20
562.560403
11
634.790522
21
563.524189
0
LINE
8
Layer 1
10
634.790522
20
563.524189
11
637.602432
21
568.962050
0
LINE
8
Layer 1
10
637.602432
20
568.962050
11
640.925664
21
574.107536
0
LINE
8
Layer 1
10
640.925664
20
574.107536
11
644.725076
21
578.912668
0
LINE
8
Layer 1
10
644.725076
20
578.912668
11
648.965522
21
583.329463
0
LINE
8
Layer 1
10
648.965522
20
583.329463
11
653.260172
21
587.026355
0
LINE
8
Layer 1
10
653.260172
20
587.026355
11
657.878277
21
590.295683
0
LINE
8
Layer 1
10
657.878277
20
590.295683
11
662.782584
21
593.088199
0
LINE
8
Layer 1
10
662.782584
20
593.088199
11
665.330422
21
594.290261
0
LINE
8
Layer 1
10
665.330422
20
594.290261
11
667.935839
21
595.354651
0
LINE
8
Layer 1
10
667.935839
20
595.354651
11
667.937639
21
595.356451
0
LINE
8
Layer 1
10
667.937639
20
595.356451
11
672.305656
21
596.786326
0
LINE
8
Layer 1
10
672.305656
20
596.786326
11
676.784227
21
597.810172
0
LINE
8
Layer 1
10
676.784227
20
597.810172
11
681.333353
21
598.414871
0
LINE
8
Layer 1
10
681.333353
20
598.414871
11
685.913033
21
598.587307
0
LINE
8
Layer 1
10
685.913033
20
598.587307
11
690.981170
21
598.286081
0
LINE
8
Layer 1
10
690.981170
20
598.286081
11
696.019311
21
597.674301
0
LINE
8
Layer 1
10
696.019311
20
597.674301
11
701.006168
21
596.749980
0
LINE
8
Layer 1
10
701.006168
20
596.749980
11
705.920456
21
595.511134
0
LINE
8
Layer 1
10
705.920456
20
595.511134
11
705.922256
21
595.511134
0
LINE
8
Layer 1
10
705.922256
20
595.511134
11
709.363775
21
594.439799
0
LINE
8
Layer 1
10
709.363775
20
594.439799
11
712.752120
21
593.209430
0
LINE
8
Layer 1
10
712.752120
20
593.209430
11
716.079546
21
591.822947
0
LINE
8
Layer 1
10
716.079546
20
591.822947
11
719.338308
21
590.283269
0
LINE
8
Layer 1
10
719.338308
20
590.283269
11
722.520663
21
588.593314
0
LINE
8
Layer 1
10
722.520663
20
588.593314
11
725.618864
21
586.756002
0
LINE
8
Layer 1
10
725.618864
20
586.756002
11
728.625167
21
584.774251
0
LINE
8
Layer 1
10
728.625167
20
584.774251
11
731.531828
21
582.650980
0
LINE
8
Layer 1
10
731.531828
20
582.650980
11
732.601247
21
582.126373
0
LINE
8
Layer 1
10
732.601247
20
582.126373
11
733.748987
21
582.055000
0
LINE
8
Layer 1
10
733.748987
20
582.055000
11
734.839759
21
582.419167
0
LINE
8
Layer 1
10
734.839759
20
582.419167
11
735.738275
21
583.201177
0
LINE
8
Layer 1
10
735.738275
20
583.201177
11
736.257397
21
584.250843
0
LINE
8
Layer 1
10
736.257397
20
584.250843
11
736.335124
21
585.419280
0
LINE
8
Layer 1
10
736.335124
20
585.419280
11
735.959612
21
586.528459
0
LINE
8
Layer 1
10
735.959612
20
586.528459
11
735.188078
21
587.409379
0
LINE
8
Layer 1
10
735.188078
20
587.409379
11
732.047730
21
589.703535
0
LINE
8
Layer 1
10
732.047730
20
589.703535
11
728.802639
21
591.842968
0
LINE
8
Layer 1
10
728.802639
20
591.842968
11
725.460699
21
593.824967
0
LINE
8
Layer 1
10
725.460699
20
593.824967
11
722.029806
21
595.646819
0
LINE
8
Layer 1
10
722.029806
20
595.646819
11
718.517854
21
597.305813
0
LINE
8
Layer 1
10
718.517854
20
597.305813
11
714.932740
21
598.799236
0
LINE
8
Layer 1
10
714.932740
20
598.799236
11
711.282357
21
600.124377
0
LINE
8
Layer 1
10
711.282357
20
600.124377
11
707.574602
21
601.278523
0
LINE
8
Layer 1
10
707.574602
20
601.278523
11
707.571002
21
601.280323
0
LINE
8
Layer 1
10
707.571002
20
601.280323
11
702.274743
21
602.615430
0
LINE
8
Layer 1
10
702.274743
20
602.615430
11
696.907776
21
603.610015
0
LINE
8
Layer 1
10
696.907776
20
603.610015
11
691.491759
21
604.266804
0
LINE
8
Layer 1
10
691.491759
20
604.266804
11
686.048348
21
604.588525
0
LINE
8
Layer 1
10
686.048348
20
604.588525
11
685.995608
21
604.588525
0
LINE
8
Layer 1
10
685.995608
20
604.588525
11
685.995608
21
604.588444
0
LINE
8
Layer 1
10
689.718647
20
588.404266
11
686.203706
21
588.366392
0
LINE
8
Layer 1
10
686.203706
20
588.366392
11
682.694435
21
588.117742
0
LINE
8
Layer 1
10
682.694435
20
588.117742
11
677.510189
21
587.344510
0
LINE
8
Layer 1
10
677.510189
20
587.344510
11
672.411623
21
586.074310
0
LINE
8
Layer 1
10
672.411623
20
586.074310
11
667.455684
21
584.293891
0
LINE
8
Layer 1
10
667.455684
20
584.293891
11
662.699315
21
581.990002
0
LINE
8
Layer 1
10
662.699315
20
581.990002
11
658.926877
21
579.662567
0
LINE
8
Layer 1
10
658.926877
20
579.662567
11
655.395130
21
576.979952
0
LINE
8
Layer 1
10
655.395130
20
576.979952
11
652.140475
21
573.960859
0
LINE
8
Layer 1
10
652.140475
20
573.960859
11
649.199315
21
570.623992
0
LINE
8
Layer 1
10
649.199315
20
570.623992
11
646.670551
21
567.114246
0
LINE
8
Layer 1
10
646.670551
20
567.114246
11
644.495098
21
563.392061
0
LINE
8
Layer 1
10
644.495098
20
563.392061
11
642.671803
21
559.495998
0
LINE
8
Layer 1
10
642.671803
20
559.495998
11
641.199512
21
555.464617
0
LINE
8
Layer 1
10
641.199512
20
555.464617
11
641.173142
21
555.378487
0
LINE
8
Layer 1
10
641.173142
20
555.378487
11
640.355303
21
552.058486
0
LINE
8
Layer 1
10
640.355303
20
552.058486
11
639.782769
21
548.679163
0
LINE
8
Layer 1
10
639.782769
20
548.679163
11
639.469923
21
545.257802
0
LINE
8
Layer 1
10
639.469923
20
545.257802
11
639.431147
21
541.811689
0
LINE
8
Layer 1
10
639.431147
20
541.811689
11
639.693681
21
540.670880
0
LINE
8
Layer 1
10
639.693681
20
540.670880
11
640.372827
21
539.717396
0
LINE
8
Layer 1
10
640.372827
20
539.717396
11
641.365177
21
539.096420
0
LINE
8
Layer 1
10
641.365177
20
539.096420
11
642.519632
21
538.902502
0
LINE
8
Layer 1
10
642.519632
20
538.902502
11
643.660439
21
539.165038
0
LINE
8
Layer 1
10
643.660439
20
539.165038
11
644.613919
21
539.844185
0
LINE
8
Layer 1
10
644.613919
20
539.844185
11
645.234893
21
540.836534
0
LINE
8
Layer 1
10
645.234893
20
540.836534
11
645.428810
21
541.990987
0
LINE
8
Layer 1
10
645.428810
20
541.990987
11
645.462577
21
544.936110
0
LINE
8
Layer 1
10
645.462577
20
544.936110
11
645.732156
21
547.879093
0
LINE
8
Layer 1
10
645.732156
20
547.879093
11
646.226674
21
550.802582
0
LINE
8
Layer 1
10
646.226674
20
550.802582
11
646.935257
21
553.689223
0
LINE
8
Layer 1
10
646.935257
20
553.689223
11
648.229156
21
557.223380
0
LINE
8
Layer 1
10
648.229156
20
557.223380
11
649.821810
21
560.623815
0
LINE
8
Layer 1
10
649.821810
20
560.623815
11
651.709664
21
563.855052
0
LINE
8
Layer 1
10
651.709664
20
563.855052
11
653.889161
21
566.881612
0
LINE
8
Layer 1
10
653.889161
20
566.881612
11
653.892761
21
566.887012
0
LINE
8
Layer 1
10
653.892761
20
566.887012
11
656.432341
21
569.767638
0
LINE
8
Layer 1
10
656.432341
20
569.767638
11
659.253567
21
572.383898
0
LINE
8
Layer 1
10
659.253567
20
572.383898
11
662.322027
21
574.714851
0
LINE
8
Layer 1
10
662.322027
20
574.714851
11
665.603309
21
576.739555
0
LINE
8
Layer 1
10
665.603309
20
576.739555
11
665.606909
21
576.741355
0
LINE
8
Layer 1
10
665.606909
20
576.741355
11
669.775676
21
578.759343
0
LINE
8
Layer 1
10
669.775676
20
578.759343
11
674.150071
21
580.329988
0
LINE
8
Layer 1
10
674.150071
20
580.329988
11
678.675981
21
581.458076
0
LINE
8
Layer 1
10
678.675981
20
581.458076
11
683.299289
21
582.148393
0
LINE
8
Layer 1
10
683.299289
20
582.148393
11
686.446734
21
582.370972
0
LINE
8
Layer 1
10
686.446734
20
582.370972
11
689.603907
21
582.404212
0
LINE
8
Layer 1
10
689.603907
20
582.404212
11
692.759434
21
582.250248
0
LINE
8
Layer 1
10
692.759434
20
582.250248
11
695.901943
21
581.911213
0
LINE
8
Layer 1
10
695.901943
20
581.911213
11
699.020060
21
581.389239
0
LINE
8
Layer 1
10
699.020060
20
581.389239
11
702.102413
21
580.686461
0
LINE
8
Layer 1
10
702.102413
20
580.686461
11
705.137628
21
579.805011
0
LINE
8
Layer 1
10
705.137628
20
579.805011
11
708.114332
21
578.747023
0
LINE
8
Layer 1
10
708.114332
20
578.747023
11
712.776182
21
576.660646
0
LINE
8
Layer 1
10
712.776182
20
576.660646
11
717.197842
21
574.119806
0
LINE
8
Layer 1
10
717.197842
20
574.119806
11
721.319348
21
571.140718
0
LINE
8
Layer 1
10
721.319348
20
571.140718
11
725.080736
21
567.739600
0
LINE
8
Layer 1
10
725.080736
20
567.739600
11
725.080736
21
567.737800
0
LINE
8
Layer 1
10
725.080736
20
567.737800
11
727.080842
21
565.575080
0
LINE
8
Layer 1
10
727.080842
20
565.575080
11
728.926832
21
563.287012
0
LINE
8
Layer 1
10
728.926832
20
563.287012
11
729.816373
21
562.495110
0
LINE
8
Layer 1
10
729.816373
20
562.495110
11
730.902796
21
562.118724
0
LINE
8
Layer 1
10
730.902796
20
562.118724
11
732.051090
21
562.177069
0
LINE
8
Layer 1
10
732.051090
20
562.177069
11
733.126241
21
562.689358
0
LINE
8
Layer 1
10
733.126241
20
562.689358
11
733.907476
21
563.561434
0
LINE
8
Layer 1
10
733.907476
20
563.561434
11
734.295405
21
564.666130
0
LINE
8
Layer 1
10
734.295405
20
564.666130
11
734.230942
21
565.835184
0
LINE
8
Layer 1
10
734.230942
20
565.835184
11
733.723904
21
566.890531
0
LINE
8
Layer 1
10
733.723904
20
566.890531
11
731.619904
21
569.498701
0
LINE
8
Layer 1
10
731.619904
20
569.498701
11
729.348707
21
571.954786
0
LINE
8
Layer 1
10
729.348707
20
571.954786
11
727.271564
21
573.942209
0
LINE
8
Layer 1
10
727.271564
20
573.942209
11
725.091153
21
575.806451
0
LINE
8
Layer 1
10
725.091153
20
575.806451
11
722.815516
21
577.546291
0
LINE
8
Layer 1
10
722.815516
20
577.546291
11
720.452699
21
579.160512
0
LINE
8
Layer 1
10
720.452699
20
579.160512
11
715.497698
21
582.007220
0
LINE
8
Layer 1
10
715.497698
20
582.007220
11
710.290505
21
584.336824
0
LINE
8
Layer 1
10
710.290505
20
584.336824
11
705.301189
21
586.028903
0
LINE
8
Layer 1
10
705.301189
20
586.028903
11
700.183790
21
587.276290
0
LINE
8
Layer 1
10
700.183790
20
587.276290
11
694.976826
21
588.070839
0
LINE
8
Layer 1
10
694.976826
20
588.070839
11
689.718818
21
588.404401
0
LINE
8
Layer 1
10
689.718818
20
588.404401
11
689.718647
21
588.404266
0
LINE
8
Layer 1
10
742.319435
20
577.055824
11
741.599757
21
576.107126
0
LINE
8
Layer 1
10
741.599757
20
576.107126
11
741.309607
21
574.994731
0
LINE
8
Layer 1
10
741.309607
20
574.994731
11
741.457573
21
573.854681
0
LINE
8
Layer 1
10
741.457573
20
573.854681
11
742.052243
21
572.823016
0
LINE
8
Layer 1
10
742.052243
20
572.823016
11
744.128219
21
570.355045
0
LINE
8
Layer 1
10
744.128219
20
570.355045
11
746.191381
21
567.665012
0
LINE
8
Layer 1
10
746.191381
20
567.665012
11
748.124836
21
564.879875
0
LINE
8
Layer 1
10
748.124836
20
564.879875
11
749.923796
21
562.006335
0
LINE
8
Layer 1
10
749.923796
20
562.006335
11
751.583470
21
559.051098
0
LINE
8
Layer 1
10
751.583470
20
559.051098
11
753.099070
21
556.020866
0
LINE
8
Layer 1
10
753.099070
20
556.020866
11
754.465806
21
552.922343
0
LINE
8
Layer 1
10
754.465806
20
552.922343
11
755.678889
21
549.762232
0
LINE
8
Layer 1
10
755.678889
20
549.762232
11
756.733529
21
546.547237
0
LINE
8
Layer 1
10
756.733529
20
546.547237
11
756.733529
21
546.543637
0
LINE
8
Layer 1
10
756.733529
20
546.543637
11
758.208846
21
540.729163
0
LINE
8
Layer 1
10
758.208846
20
540.729163
11
759.164159
21
534.804800
0
LINE
8
Layer 1
10
759.164159
20
534.804800
11
759.594525
21
528.818994
0
LINE
8
Layer 1
10
759.594525
20
528.818994
11
759.494999
21
522.820195
0
LINE
8
Layer 1
10
759.494999
20
522.820195
11
759.494999
21
522.776275
0
LINE
8
Layer 1
10
759.494999
20
522.776275
11
758.837538
21
514.075952
0
LINE
8
Layer 1
10
758.837538
20
514.075952
11
757.672139
21
505.426660
0
LINE
8
Layer 1
10
757.672139
20
505.426660
11
756.667386
21
499.940364
0
LINE
8
Layer 1
10
756.667386
20
499.940364
11
755.462522
21
494.493487
0
LINE
8
Layer 1
10
755.462522
20
494.493487
11
754.062389
21
489.091736
0
LINE
8
Layer 1
10
754.062389
20
489.091736
11
752.471832
21
483.740820
0
LINE
8
Layer 1
10
752.471832
20
483.740820
11
750.695695
21
478.446449
0
LINE
8
Layer 1
10
750.695695
20
478.446449
11
748.738820
21
473.214329
0
LINE
8
Layer 1
10
748.738820
20
473.214329
11
746.606052
21
468.050171
0
LINE
8
Layer 1
10
746.606052
20
468.050171
11
744.302234
21
462.959683
0
LINE
8
Layer 1
10
744.302234
20
462.959683
11
744.016653
21
461.803238
0
LINE
8
Layer 1
10
744.016653
20
461.803238
11
744.190618
21
460.666496
0
LINE
8
Layer 1
10
744.190618
20
460.666496
11
744.778107
21
459.677910
0
LINE
8
Layer 1
10
744.778107
20
459.677910
11
745.733099
21
458.965933
0
LINE
8
Layer 1
10
745.733099
20
458.965933
11
746.889537
21
458.680345
0
LINE
8
Layer 1
10
746.889537
20
458.680345
11
748.026275
21
458.854298
0
LINE
8
Layer 1
10
748.026275
20
458.854298
11
749.014863
21
459.441774
0
LINE
8
Layer 1
10
749.014863
20
459.441774
11
749.726849
21
460.396753
0
LINE
8
Layer 1
10
749.726849
20
460.396753
11
752.112724
21
465.668298
0
LINE
8
Layer 1
10
752.112724
20
465.668298
11
754.322577
21
471.018336
0
LINE
8
Layer 1
10
754.322577
20
471.018336
11
756.351211
21
476.441289
0
LINE
8
Layer 1
10
756.351211
20
476.441289
11
758.193430
21
481.931581
0
LINE
8
Layer 1
10
758.193430
20
481.931581
11
759.844038
21
487.483633
0
LINE
8
Layer 1
10
759.844038
20
487.483633
11
761.297838
21
493.091870
0
LINE
8
Layer 1
10
761.297838
20
493.091870
11
762.549634
21
498.750714
0
LINE
8
Layer 1
10
762.549634
20
498.750714
11
763.594229
21
504.454588
0
LINE
8
Layer 1
10
763.594229
20
504.454588
11
764.802524
21
513.425867
0
LINE
8
Layer 1
10
764.802524
20
513.425867
11
765.485669
21
522.454588
0
LINE
8
Layer 1
10
765.485669
20
522.454588
11
765.594386
21
528.984853
0
LINE
8
Layer 1
10
765.594386
20
528.984853
11
765.126366
21
535.497476
0
LINE
8
Layer 1
10
765.126366
20
535.497476
11
764.086521
21
541.943783
0
LINE
8
Layer 1
10
764.086521
20
541.943783
11
762.479759
21
548.275102
0
LINE
8
Layer 1
10
762.479759
20
548.275102
11
761.332205
21
551.774115
0
LINE
8
Layer 1
10
761.332205
20
551.774115
11
760.013905
21
555.209421
0
LINE
8
Layer 1
10
760.013905
20
555.209421
11
758.529927
21
558.574471
0
LINE
8
Layer 1
10
758.529927
20
558.574471
11
756.885336
21
561.862718
0
LINE
8
Layer 1
10
756.885336
20
561.862718
11
755.085201
21
565.067613
0
LINE
8
Layer 1
10
755.085201
20
565.067613
11
753.134586
21
568.182607
0
LINE
8
Layer 1
10
753.134586
20
568.182607
11
751.038560
21
571.201154
0
LINE
8
Layer 1
10
751.038560
20
571.201154
11
748.802189
21
574.116703
0
LINE
8
Layer 1
10
748.802189
20
574.116703
11
748.802189
21
574.118503
0
LINE
8
Layer 1
10
748.802189
20
574.118503
11
746.553989
21
576.788623
0
LINE
8
Layer 1
10
746.553989
20
576.788623
11
745.623550
21
577.499067
0
LINE
8
Layer 1
10
745.623550
20
577.499067
11
744.492049
21
577.799322
0
LINE
8
Layer 1
10
744.492049
20
577.799322
11
743.331783
21
577.643667
0
LINE
8
Layer 1
10
743.331783
20
577.643667
11
742.319426
21
577.055806
0
LINE
8
Layer 1
10
742.319426
20
577.055806
11
742.319435
21
577.055824
0
LINE
8
Layer 1
10
208.181738
20
559.057588
11
207.032661
21
559.279705
0
LINE
8
Layer 1
10
207.032661
20
559.279705
11
205.886036
21
559.045258
0
LINE
8
Layer 1
10
205.886036
20
559.045258
11
204.915980
21
558.389808
0
LINE
8
Layer 1
10
204.915980
20
558.389808
11
204.270660
21
557.412984
0
LINE
8
Layer 1
10
204.270660
20
557.412984
11
204.048352
21
556.263549
0
LINE
8
Layer 1
10
204.048352
20
556.263549
11
204.282911
21
555.116551
0
LINE
8
Layer 1
10
204.282911
20
555.116551
11
209.166767
21
544.002114
0
LINE
8
Layer 1
10
209.166767
20
544.002114
11
214.409315
21
533.050508
0
LINE
8
Layer 1
10
214.409315
20
533.050508
11
220.007118
21
522.275147
0
LINE
8
Layer 1
10
220.007118
20
522.275147
11
225.956736
21
511.689444
0
LINE
8
Layer 1
10
225.956736
20
511.689444
11
232.254731
21
501.306813
0
LINE
8
Layer 1
10
232.254731
20
501.306813
11
238.897664
21
491.140667
0
LINE
8
Layer 1
10
238.897664
20
491.140667
11
245.882096
21
481.204419
0
LINE
8
Layer 1
10
245.882096
20
481.204419
11
253.204589
21
471.511483
0
LINE
8
Layer 1
10
253.204589
20
471.511483
11
260.713808
21
462.249245
0
LINE
8
Layer 1
10
260.713808
20
462.249245
11
268.537988
21
453.249583
0
LINE
8
Layer 1
10
268.537988
20
453.249583
11
269.475912
21
452.548487
0
LINE
8
Layer 1
10
269.475912
20
452.548487
11
270.610783
21
452.259863
0
LINE
8
Layer 1
10
270.610783
20
452.259863
11
271.769692
21
452.427684
0
LINE
8
Layer 1
10
271.769692
20
452.427684
11
272.776070
21
453.026383
0
LINE
8
Layer 1
10
272.776070
20
453.026383
11
273.485784
21
453.982945
0
LINE
8
Layer 1
10
273.485784
20
453.982945
11
273.764019
21
455.098669
0
LINE
8
Layer 1
10
273.764019
20
455.098669
11
273.603652
21
456.237326
0
LINE
8
Layer 1
10
273.603652
20
456.237326
11
272.997560
21
457.262683
0
LINE
8
Layer 1
10
272.997560
20
457.262683
11
265.308851
21
466.106171
0
LINE
8
Layer 1
10
265.308851
20
466.106171
11
257.927834
21
475.209925
0
LINE
8
Layer 1
10
257.927834
20
475.209925
11
250.730206
21
484.737813
0
LINE
8
Layer 1
10
250.730206
20
484.737813
11
243.863598
21
494.507010
0
LINE
8
Layer 1
10
243.863598
20
494.507010
11
237.331571
21
504.504167
0
LINE
8
Layer 1
10
237.331571
20
504.504167
11
231.137684
21
514.715935
0
LINE
8
Layer 1
10
231.137684
20
514.715935
11
225.285497
21
525.128964
0
LINE
8
Layer 1
10
225.285497
20
525.128964
11
219.778572
21
535.729907
0
LINE
8
Layer 1
10
219.778572
20
535.729907
11
214.620467
21
546.505412
0
LINE
8
Layer 1
10
214.620467
20
546.505412
11
209.814743
21
557.442133
0
LINE
8
Layer 1
10
209.814743
20
557.442133
11
209.158976
21
558.412335
0
LINE
8
Layer 1
10
209.158976
20
558.412335
11
208.181738
21
559.057570
0
LINE
8
Layer 1
10
208.181738
20
559.057570
11
208.181738
21
559.057588
0
LINE
8
Layer 1
10
739.707320
20
554.784343
11
738.557375
21
555.002102
0
LINE
8
Layer 1
10
738.557375
20
555.002102
11
737.411618
21
554.763283
0
LINE
8
Layer 1
10
737.411618
20
554.763283
11
736.444051
21
554.104414
0
LINE
8
Layer 1
10
736.444051
20
554.104414
11
735.802293
21
553.125414
0
LINE
8
Layer 1
10
735.802293
20
553.125414
11
735.584053
21
551.975342
0
LINE
8
Layer 1
10
735.584053
20
551.975342
11
735.822560
21
550.829302
0
LINE
8
Layer 1
10
735.822560
20
550.829302
11
737.928923
21
545.238574
0
LINE
8
Layer 1
10
737.928923
20
545.238574
11
739.575099
21
539.489332
0
LINE
8
Layer 1
10
739.575099
20
539.489332
11
740.760482
21
533.622038
0
LINE
8
Layer 1
10
740.760482
20
533.622038
11
741.484469
21
527.677153
0
LINE
8
Layer 1
10
741.484469
20
527.677153
11
741.484469
21
527.673553
0
LINE
8
Layer 1
10
741.484469
20
527.673553
11
741.764737
21
520.782539
0
LINE
8
Layer 1
10
741.764737
20
520.782539
11
741.478416
21
513.878688
0
LINE
8
Layer 1
10
741.478416
20
513.878688
11
740.657672
21
507.002300
0
LINE
8
Layer 1
10
740.657672
20
507.002300
11
739.334666
21
500.193673
0
LINE
8
Layer 1
10
739.334666
20
500.193673
11
738.362975
21
496.333519
0
LINE
8
Layer 1
10
738.362975
20
496.333519
11
737.245190
21
492.511031
0
LINE
8
Layer 1
10
737.245190
20
492.511031
11
734.591849
21
484.992617
0
LINE
8
Layer 1
10
734.591849
20
484.992617
11
731.415679
21
477.665548
0
LINE
8
Layer 1
10
731.415679
20
477.665548
11
727.757714
21
470.556943
0
LINE
8
Layer 1
10
727.757714
20
470.556943
11
723.520483
21
463.489974
0
LINE
8
Layer 1
10
723.520483
20
463.489974
11
718.839735
21
456.706978
0
LINE
8
Layer 1
10
718.839735
20
456.706978
11
713.736971
21
450.234752
0
LINE
8
Layer 1
10
713.736971
20
450.234752
11
708.233690
21
444.100093
0
LINE
8
Layer 1
10
708.233690
20
444.100093
11
707.605299
21
443.112511
0
LINE
8
Layer 1
10
707.605299
20
443.112511
11
707.402676
21
441.959629
0
LINE
8
Layer 1
10
707.402676
20
441.959629
11
707.656671
21
440.816965
0
LINE
8
Layer 1
10
707.656671
20
440.816965
11
708.328613
21
439.858483
0
LINE
8
Layer 1
10
708.328613
20
439.858483
11
709.316197
21
439.230101
0
LINE
8
Layer 1
10
709.316197
20
439.230101
11
710.469078
21
439.027487
0
LINE
8
Layer 1
10
710.469078
20
439.027487
11
711.611738
21
439.281488
0
LINE
8
Layer 1
10
711.611738
20
439.281488
11
712.570214
21
439.953433
0
LINE
8
Layer 1
10
712.570214
20
439.953433
11
718.328854
21
446.372668
0
LINE
8
Layer 1
10
718.328854
20
446.372668
11
723.668046
21
453.144834
0
LINE
8
Layer 1
10
723.668046
20
453.144834
11
728.566086
21
460.243110
0
LINE
8
Layer 1
10
728.566086
20
460.243110
11
733.001267
21
467.640673
0
LINE
8
Layer 1
10
733.001267
20
467.640673
11
736.836824
21
475.094171
0
LINE
8
Layer 1
10
736.836824
20
475.094171
11
740.175274
21
482.795577
0
LINE
8
Layer 1
10
740.175274
20
482.795577
11
741.643907
21
486.731278
0
LINE
8
Layer 1
10
741.643907
20
486.731278
11
742.971252
21
490.719393
0
LINE
8
Layer 1
10
742.971252
20
490.719393
11
744.151637
21
494.756736
0
LINE
8
Layer 1
10
744.151637
20
494.756736
11
745.179392
21
498.840118
0
LINE
8
Layer 1
10
745.179392
20
498.840118
11
746.584316
21
506.067905
0
LINE
8
Layer 1
10
746.584316
20
506.067905
11
747.459206
21
513.392156
0
LINE
8
Layer 1
10
747.459206
20
513.392156
11
747.765470
21
520.772664
0
LINE
8
Layer 1
10
747.765470
20
520.772664
11
747.693308
21
524.471449
0
LINE
8
Layer 1
10
747.693308
20
524.471449
11
747.464519
21
528.169219
0
LINE
8
Layer 1
10
747.464519
20
528.169219
11
747.464519
21
528.172819
0
LINE
8
Layer 1
10
747.464519
20
528.172819
11
746.684352
21
534.579392
0
LINE
8
Layer 1
10
746.684352
20
534.579392
11
745.405592
21
540.909231
0
LINE
8
Layer 1
10
745.405592
20
540.909231
11
743.626568
21
547.121206
0
LINE
8
Layer 1
10
743.626568
20
547.121206
11
741.345608
21
553.174189
0
LINE
8
Layer 1
10
741.345608
20
553.174189
11
740.686410
21
554.141307
0
LINE
8
Layer 1
10
740.686410
20
554.141307
11
739.707320
21
554.782588
0
LINE
8
Layer 1
10
739.707320
20
554.782588
11
739.707320
21
554.784343
0
LINE
8
Layer 1
10
628.070411
20
553.464223
11
626.899880
21
553.449623
0
LINE
8
Layer 1
10
626.899880
20
553.449623
11
625.824049
21
552.988162
0
LINE
8
Layer 1
10
625.824049
20
552.988162
11
625.006728
21
552.150103
0
LINE
8
Layer 1
10
625.006728
20
552.150103
11
624.572363
21
551.063050
0
LINE
8
Layer 1
10
624.572363
20
551.063050
11
623.841710
21
545.829478
0
LINE
8
Layer 1
10
623.841710
20
545.829478
11
623.600613
21
540.536948
0
LINE
8
Layer 1
10
623.600613
20
540.536948
11
623.879228
21
535.234031
0
LINE
8
Layer 1
10
623.879228
20
535.234031
11
624.707714
21
529.969300
0
LINE
8
Layer 1
10
624.707714
20
529.969300
11
625.860548
21
525.561187
0
LINE
8
Layer 1
10
625.860548
20
525.561187
11
627.426384
21
521.283566
0
LINE
8
Layer 1
10
627.426384
20
521.283566
11
629.392455
21
517.173130
0
LINE
8
Layer 1
10
629.392455
20
517.173130
11
631.745993
21
513.266569
0
LINE
8
Layer 1
10
631.745993
20
513.266569
11
633.312417
21
511.060082
0
LINE
8
Layer 1
10
633.312417
20
511.060082
11
634.994763
21
508.946993
0
LINE
8
Layer 1
10
634.994763
20
508.946993
11
638.673536
21
505.010122
0
LINE
8
Layer 1
10
638.673536
20
505.010122
11
641.405545
21
502.425210
0
LINE
8
Layer 1
10
641.405545
20
502.425210
11
644.378678
21
500.122241
0
LINE
8
Layer 1
10
644.378678
20
500.122241
11
647.567502
21
498.124394
0
LINE
8
Layer 1
10
647.567502
20
498.124394
11
650.946584
21
496.454848
0
LINE
8
Layer 1
10
650.946584
20
496.454848
11
650.948384
21
496.454848
0
LINE
8
Layer 1
10
650.948384
20
496.454848
11
650.953784
21
496.451248
0
LINE
8
Layer 1
10
650.953784
20
496.451248
11
655.230151
21
494.890280
0
LINE
8
Layer 1
10
655.230151
20
494.890280
11
659.639389
21
493.838272
0
LINE
8
Layer 1
10
659.639389
20
493.838272
11
664.126282
21
493.279763
0
LINE
8
Layer 1
10
664.126282
20
493.279763
11
668.635616
21
493.199287
0
LINE
8
Layer 1
10
668.635616
20
493.199287
11
673.607676
21
493.642062
0
LINE
8
Layer 1
10
673.607676
20
493.642062
11
678.500338
21
494.621208
0
LINE
8
Layer 1
10
678.500338
20
494.621208
11
683.259029
21
496.124698
0
LINE
8
Layer 1
10
683.259029
20
496.124698
11
687.829178
21
498.140503
0
LINE
8
Layer 1
10
687.829178
20
498.140503
11
687.832778
21
498.142303
0
LINE
8
Layer 1
10
687.832778
20
498.142303
11
691.035986
21
499.953549
0
LINE
8
Layer 1
10
691.035986
20
499.953549
11
694.083980
21
502.056284
0
LINE
8
Layer 1
10
694.083980
20
502.056284
11
696.929177
21
504.458182
0
LINE
8
Layer 1
10
696.929177
20
504.458182
11
699.523994
21
507.166918
0
LINE
8
Layer 1
10
699.523994
20
507.166918
11
699.525794
21
507.168718
0
LINE
8
Layer 1
10
699.525794
20
507.168718
11
701.158390
21
509.249642
0
LINE
8
Layer 1
10
701.158390
20
509.249642
11
702.610100
21
511.483492
0
LINE
8
Layer 1
10
702.610100
20
511.483492
11
703.849882
21
513.862688
0
LINE
8
Layer 1
10
703.849882
20
513.862688
11
704.846693
21
516.379651
0
LINE
8
Layer 1
10
704.846693
20
516.379651
11
704.994396
21
517.540851
0
LINE
8
Layer 1
10
704.994396
20
517.540851
11
704.686478
21
518.670182
0
LINE
8
Layer 1
10
704.686478
20
518.670182
11
703.969819
21
519.595709
0
LINE
8
Layer 1
10
703.969819
20
519.595709
11
702.953525
21
520.176526
0
LINE
8
Layer 1
10
702.953525
20
520.176526
11
701.792327
21
520.324230
0
LINE
8
Layer 1
10
701.792327
20
520.324230
11
700.662997
21
520.016315
0
LINE
8
Layer 1
10
700.662997
20
520.016315
11
699.737469
21
519.299658
0
LINE
8
Layer 1
10
699.737469
20
519.299658
11
699.156650
21
518.283367
0
LINE
8
Layer 1
10
699.156650
20
518.283367
11
698.394768
21
516.363241
0
LINE
8
Layer 1
10
698.394768
20
516.363241
11
697.428821
21
514.512325
0
LINE
8
Layer 1
10
697.428821
20
514.512325
11
696.279133
21
512.743414
0
LINE
8
Layer 1
10
696.279133
20
512.743414
11
694.966025
21
511.069300
0
LINE
8
Layer 1
10
694.966025
20
511.069300
11
692.825983
21
508.837631
0
LINE
8
Layer 1
10
692.825983
20
508.837631
11
690.443139
21
506.827994
0
LINE
8
Layer 1
10
690.443139
20
506.827994
11
687.855968
21
505.043209
0
LINE
8
Layer 1
10
687.855968
20
505.043209
11
685.102943
21
503.486098
0
LINE
8
Layer 1
10
685.102943
20
503.486098
11
681.138979
21
501.739353
0
LINE
8
Layer 1
10
681.138979
20
501.739353
11
677.003257
21
500.433934
0
LINE
8
Layer 1
10
677.003257
20
500.433934
11
672.749604
21
499.582332
0
LINE
8
Layer 1
10
672.749604
20
499.582332
11
668.431847
21
499.197040
0
LINE
8
Layer 1
10
668.431847
20
499.197040
11
664.548156
21
499.266953
0
LINE
8
Layer 1
10
664.548156
20
499.266953
11
660.702924
21
499.745830
0
LINE
8
Layer 1
10
660.702924
20
499.745830
11
656.949009
21
500.640251
0
LINE
8
Layer 1
10
656.949009
20
500.640251
11
653.339270
21
501.956800
0
LINE
8
Layer 1
10
653.339270
20
501.956800
11
653.332070
21
501.960400
0
LINE
8
Layer 1
10
653.332070
20
501.960400
11
650.490709
21
503.364462
0
LINE
8
Layer 1
10
650.490709
20
503.364462
11
647.800744
21
505.050351
0
LINE
8
Layer 1
10
647.800744
20
505.050351
11
645.288942
21
506.996538
0
LINE
8
Layer 1
10
645.288942
20
506.996538
11
642.982070
21
509.181496
0
LINE
8
Layer 1
10
642.982070
20
509.181496
11
642.894140
21
509.269336
0
LINE
8
Layer 1
10
642.894140
20
509.269336
11
639.610721
21
512.775641
0
LINE
8
Layer 1
10
639.610721
20
512.775641
11
636.733010
21
516.599413
0
LINE
8
Layer 1
10
636.733010
20
516.599413
11
636.731210
21
516.604813
0
LINE
8
Layer 1
10
636.731210
20
516.604813
11
634.676738
21
520.015078
0
LINE
8
Layer 1
10
634.676738
20
520.015078
11
632.957225
21
523.609796
0
LINE
8
Layer 1
10
632.957225
20
523.609796
11
631.586180
21
527.353002
0
LINE
8
Layer 1
10
631.586180
20
527.353002
11
630.577109
21
531.208726
0
LINE
8
Layer 1
10
630.577109
20
531.208726
11
630.577109
21
531.214126
0
LINE
8
Layer 1
10
630.577109
20
531.214126
11
629.848451
21
535.849858
0
LINE
8
Layer 1
10
629.848451
20
535.849858
11
629.602213
21
540.552761
0
LINE
8
Layer 1
10
629.602213
20
540.552761
11
629.817058
21
545.274431
0
LINE
8
Layer 1
10
629.817058
20
545.274431
11
630.471647
21
549.966463
0
LINE
8
Layer 1
10
630.471647
20
549.966463
11
630.457047
21
551.136994
0
LINE
8
Layer 1
10
630.457047
20
551.136994
11
629.995586
21
552.212825
0
LINE
8
Layer 1
10
629.995586
20
552.212825
11
629.157527
21
553.030146
0
LINE
8
Layer 1
10
629.157527
20
553.030146
11
628.070474
21
553.464511
0
LINE
8
Layer 1
10
628.070474
20
553.464511
11
628.070411
21
553.464223
0
LINE
8
Layer 1
10
682.059863
20
552.363838
11
680.291688
21
552.339171
0
LINE
8
Layer 1
10
680.291688
20
552.339171
11
678.489743
21
552.050944
0
LINE
8
Layer 1
10
678.489743
20
552.050944
11
676.960243
21
551.568454
0
LINE
8
Layer 1
10
676.960243
20
551.568454
11
675.516146
21
550.860184
0
LINE
8
Layer 1
10
675.516146
20
550.860184
11
674.188634
21
549.929912
0
LINE
8
Layer 1
10
674.188634
20
549.929912
11
673.008887
21
548.781415
0
LINE
8
Layer 1
10
673.008887
20
548.781415
11
671.933491
21
547.318631
0
LINE
8
Layer 1
10
671.933491
20
547.318631
11
671.139869
21
545.729338
0
LINE
8
Layer 1
10
671.139869
20
545.729338
11
670.618062
21
544.055049
0
LINE
8
Layer 1
10
670.618062
20
544.055049
11
670.358108
21
542.337271
0
LINE
8
Layer 1
10
670.358108
20
542.337271
11
670.358108
21
542.335471
0
LINE
8
Layer 1
10
670.358108
20
542.335471
11
670.358886
21
540.322636
0
LINE
8
Layer 1
10
670.358886
20
540.322636
11
670.657650
21
538.377099
0
LINE
8
Layer 1
10
670.657650
20
538.377099
11
671.214015
21
536.521538
0
LINE
8
Layer 1
10
671.214015
20
536.521538
11
671.987594
21
534.778630
0
LINE
8
Layer 1
10
671.987594
20
534.778630
11
671.989394
21
534.776830
0
LINE
8
Layer 1
10
671.989394
20
534.776830
11
671.989394
21
534.775030
0
LINE
8
Layer 1
10
671.989394
20
534.775030
11
673.183412
21
532.800556
0
LINE
8
Layer 1
10
673.183412
20
532.800556
11
674.588999
21
531.025369
0
LINE
8
Layer 1
10
674.588999
20
531.025369
11
676.160798
21
529.443225
0
LINE
8
Layer 1
10
676.160798
20
529.443225
11
677.853452
21
528.047881
0
LINE
8
Layer 1
10
677.853452
20
528.047881
11
677.855252
21
528.047881
0
LINE
8
Layer 1
10
677.855252
20
528.047881
11
680.721132
21
526.219377
0
LINE
8
Layer 1
10
680.721132
20
526.219377
11
683.735141
21
524.760766
0
LINE
8
Layer 1
10
683.735141
20
524.760766
11
682.189147
21
521.560114
0
LINE
8
Layer 1
10
682.189147
20
521.560114
11
681.286173
21
520.068785
0
LINE
8
Layer 1
10
681.286173
20
520.068785
11
680.270492
21
518.678737
0
LINE
8
Layer 1
10
680.270492
20
518.678737
11
680.268692
21
518.676937
0
LINE
8
Layer 1
10
680.268692
20
518.676937
11
679.039438
21
517.304867
0
LINE
8
Layer 1
10
679.039438
20
517.304867
11
677.688511
21
516.085180
0
LINE
8
Layer 1
10
677.688511
20
516.085180
11
676.230655
21
515.043841
0
LINE
8
Layer 1
10
676.230655
20
515.043841
11
674.680610
21
514.206817
0
LINE
8
Layer 1
10
674.680610
20
514.206817
11
674.668280
21
514.201417
0
LINE
8
Layer 1
10
674.668280
20
514.201417
11
673.093004
21
513.598158
0
LINE
8
Layer 1
10
673.093004
20
513.598158
11
671.439253
21
513.198813
0
LINE
8
Layer 1
10
671.439253
20
513.198813
11
669.738883
21
513.005457
0
LINE
8
Layer 1
10
669.738883
20
513.005457
11
668.023751
21
513.020167
0
LINE
8
Layer 1
10
668.023751
20
513.020167
11
668.016551
21
513.020167
0
LINE
8
Layer 1
10
668.016551
20
513.020167
11
665.906127
21
513.306958
0
LINE
8
Layer 1
10
665.906127
20
513.306958
11
663.816811
21
513.867042
0
LINE
8
Layer 1
10
663.816811
20
513.867042
11
661.775559
21
514.674734
0
LINE
8
Layer 1
10
661.775559
20
514.674734
11
659.809325
21
515.704345
0
LINE
8
Layer 1
10
659.809325
20
515.704345
11
659.807525
21
515.704345
0
LINE
8
Layer 1
10
659.807525
20
515.704345
11
657.370088
21
517.350927
0
LINE
8
Layer 1
10
657.370088
20
517.350927
11
655.120391
21
519.281596
0
LINE
8
Layer 1
10
655.120391
20
519.281596
11
653.074563
21
521.457870
0
LINE
8
Layer 1
10
653.074563
20
521.457870
11
651.248732
21
523.841263
0
LINE
8
Layer 1
10
651.248732
20
523.841263
11
649.780234
21
526.179606
0
LINE
8
Layer 1
10
649.780234
20
526.179606
11
648.517097
21
528.640090
0
LINE
8
Layer 1
10
648.517097
20
528.640090
11
647.829709
21
529.587676
0
LINE
8
Layer 1
10
647.829709
20
529.587676
11
646.831998
21
530.200044
0
LINE
8
Layer 1
10
646.831998
20
530.200044
11
645.675883
21
530.383947
0
LINE
8
Layer 1
10
645.675883
20
530.383947
11
644.537405
21
530.111383
0
LINE
8
Layer 1
10
644.537405
20
530.111383
11
643.575551
21
529.408700
0
LINE
8
Layer 1
10
643.575551
20
529.408700
11
642.978501
21
528.425856
0
LINE
8
Layer 1
10
642.978501
20
528.425856
11
642.793521
21
527.290853
0
LINE
8
Layer 1
10
642.793521
20
527.290853
11
643.067876
21
526.131691
0
LINE
8
Layer 1
10
643.067876
20
526.131691
11
644.565864
21
523.213147
0
LINE
8
Layer 1
10
644.565864
20
523.213147
11
646.312799
21
520.431109
0
LINE
8
Layer 1
10
646.312799
20
520.431109
11
646.312799
21
520.429309
0
LINE
8
Layer 1
10
646.312799
20
520.429309
11
648.497771
21
517.576030
0
LINE
8
Layer 1
10
648.497771
20
517.576030
11
650.971841
21
514.944151
0
LINE
8
Layer 1
10
650.971841
20
514.944151
11
653.727621
21
512.582049
0
LINE
8
Layer 1
10
653.727621
20
512.582049
11
656.757722
21
510.538102
0
LINE
8
Layer 1
10
656.757722
20
510.538102
11
656.759522
21
510.536302
0
LINE
8
Layer 1
10
656.759522
20
510.536302
11
659.268137
21
509.221081
0
LINE
8
Layer 1
10
659.268137
20
509.221081
11
661.927396
21
508.167975
0
LINE
8
Layer 1
10
661.927396
20
508.167975
11
664.715901
21
507.423201
0
LINE
8
Layer 1
10
664.715901
20
507.423201
11
667.612253
21
507.032980
0
LINE
8
Layer 1
10
667.612253
20
507.032980
11
667.614053
21
507.032980
0
LINE
8
Layer 1
10
667.614053
20
507.032980
11
670.055625
21
507.011383
0
LINE
8
Layer 1
10
670.055625
20
507.011383
11
672.485753
21
507.287758
0
LINE
8
Layer 1
10
672.485753
20
507.287758
11
674.870656
21
507.866527
0
LINE
8
Layer 1
10
674.870656
20
507.866527
11
677.176553
21
508.752115
0
LINE
8
Layer 1
10
677.176553
20
508.752115
11
679.411358
21
509.955539
0
LINE
8
Layer 1
10
679.411358
20
509.955539
11
681.452019
21
511.409258
0
LINE
8
Layer 1
10
681.452019
20
511.409258
11
683.294253
21
513.072054
0
LINE
8
Layer 1
10
683.294253
20
513.072054
11
684.933779
21
514.902706
0
LINE
8
Layer 1
10
684.933779
20
514.902706
11
684.935579
21
514.906306
0
LINE
8
Layer 1
10
684.935579
20
514.906306
11
686.720158
21
517.379160
0
LINE
8
Layer 1
10
686.720158
20
517.379160
11
688.221597
21
519.984112
0
LINE
8
Layer 1
10
688.221597
20
519.984112
11
689.471337
21
522.679406
0
LINE
8
Layer 1
10
689.471337
20
522.679406
11
690.500819
21
525.423292
0
LINE
8
Layer 1
10
690.500819
20
525.423292
11
690.651565
21
526.585450
0
LINE
8
Layer 1
10
690.651565
20
526.585450
11
690.345622
21
527.716704
0
LINE
8
Layer 1
10
690.345622
20
527.716704
11
689.629666
21
528.644466
0
LINE
8
Layer 1
10
689.629666
20
528.644466
11
688.612925
21
529.227196
0
LINE
8
Layer 1
10
688.612925
20
529.227196
11
684.833838
21
530.781541
0
LINE
8
Layer 1
10
684.833838
20
530.781541
11
683.083911
21
531.746860
0
LINE
8
Layer 1
10
683.083911
20
531.746860
11
681.453353
21
532.848292
0
LINE
8
Layer 1
10
681.453353
20
532.848292
11
680.197135
21
533.885048
0
LINE
8
Layer 1
10
680.197135
20
533.885048
11
679.072874
21
535.017312
0
LINE
8
Layer 1
10
679.072874
20
535.017312
11
678.105260
21
536.235770
0
LINE
8
Layer 1
10
678.105260
20
536.235770
11
677.318978
21
537.531109
0
LINE
8
Layer 1
10
677.318978
20
537.531109
11
677.317178
21
537.534709
0
LINE
8
Layer 1
10
677.317178
20
537.534709
11
676.514552
21
539.704192
0
LINE
8
Layer 1
10
676.514552
20
539.704192
11
676.343440
21
540.799311
0
LINE
8
Layer 1
10
676.343440
20
540.799311
11
676.339832
21
541.865959
0
LINE
8
Layer 1
10
676.339832
20
541.865959
11
676.339832
21
541.878289
0
LINE
8
Layer 1
10
676.339832
20
541.878289
11
676.713294
21
543.491949
0
LINE
8
Layer 1
10
676.713294
20
543.491949
11
677.512289
21
544.820866
0
LINE
8
Layer 1
10
677.512289
20
544.820866
11
677.526329
21
544.836706
0
LINE
8
Layer 1
10
677.526329
20
544.836706
11
678.567584
21
545.689102
0
LINE
8
Layer 1
10
678.567584
20
545.689102
11
679.869497
21
546.213076
0
LINE
8
Layer 1
10
679.869497
20
546.213076
11
679.881827
21
546.216676
0
LINE
8
Layer 1
10
679.881827
20
546.216676
11
681.748592
21
546.365568
0
LINE
8
Layer 1
10
681.748592
20
546.365568
11
683.791202
21
546.016282
0
LINE
8
Layer 1
10
683.791202
20
546.016282
11
685.243725
21
545.511064
0
LINE
8
Layer 1
10
685.243725
20
545.511064
11
686.678024
21
544.835889
0
LINE
8
Layer 1
10
686.678024
20
544.835889
11
689.472452
21
543.064912
0
LINE
8
Layer 1
10
689.472452
20
543.064912
11
691.356050
21
541.558099
0
LINE
8
Layer 1
10
691.356050
20
541.558099
11
692.931827
21
540.027412
0
LINE
8
Layer 1
10
692.931827
20
540.027412
11
692.945867
21
540.009862
0
LINE
8
Layer 1
10
692.945867
20
540.009862
11
694.717116
21
537.893126
0
LINE
8
Layer 1
10
694.717116
20
537.893126
11
696.298943
21
535.671577
0
LINE
8
Layer 1
10
696.298943
20
535.671577
11
697.654868
21
533.350714
0
LINE
8
Layer 1
10
697.654868
20
533.350714
11
698.748410
21
530.936035
0
LINE
8
Layer 1
10
698.748410
20
530.936035
11
699.389122
21
529.931717
0
LINE
8
Layer 1
10
699.389122
20
529.931717
11
700.332475
21
529.273883
0
LINE
8
Layer 1
10
700.332475
20
529.273883
11
701.453666
21
529.017780
0
LINE
8
Layer 1
10
701.453666
20
529.017780
11
702.627896
21
529.218655
0
LINE
8
Layer 1
10
702.627896
20
529.218655
11
703.632219
21
529.859366
0
LINE
8
Layer 1
10
703.632219
20
529.859366
11
704.290057
21
530.802721
0
LINE
8
Layer 1
10
704.290057
20
530.802721
11
704.546162
21
531.923916
0
LINE
8
Layer 1
10
704.546162
20
531.923916
11
704.345285
21
533.098150
0
LINE
8
Layer 1
10
704.345285
20
533.098150
11
702.985048
21
536.108949
0
LINE
8
Layer 1
10
702.985048
20
536.108949
11
701.341313
21
538.928286
0
LINE
8
Layer 1
10
701.341313
20
538.928286
11
699.467679
21
541.560679
0
LINE
8
Layer 1
10
699.467679
20
541.560679
11
697.417742
21
544.010650
0
LINE
8
Layer 1
10
697.417742
20
544.010650
11
695.265879
21
546.114180
0
LINE
8
Layer 1
10
695.265879
20
546.114180
11
693.079463
21
547.860256
0
LINE
8
Layer 1
10
693.079463
20
547.860256
11
693.044273
21
547.886626
0
LINE
8
Layer 1
10
693.044273
20
547.886626
11
691.327348
21
549.066985
0
LINE
8
Layer 1
10
691.327348
20
549.066985
11
689.487296
21
550.141984
0
LINE
8
Layer 1
10
689.487296
20
550.141984
11
687.518945
21
551.065768
0
LINE
8
Layer 1
10
687.518945
20
551.065768
11
685.417124
21
551.792482
0
LINE
8
Layer 1
10
685.417124
20
551.792482
11
685.413524
21
551.792482
0
LINE
8
Layer 1
10
685.413524
20
551.792482
11
683.775246
21
552.166449
0
LINE
8
Layer 1
10
683.775246
20
552.166449
11
682.059620
21
552.363775
0
LINE
8
Layer 1
10
682.059620
20
552.363775
11
682.059863
21
552.363838
0
LINE
8
Layer 1
10
262.862012
20
551.818915
11
261.708736
21
552.019994
0
LINE
8
Layer 1
10
261.708736
20
552.019994
11
260.566310
21
551.764375
0
LINE
8
Layer 1
10
260.566310
20
551.764375
11
259.608561
21
551.091362
0
LINE
8
Layer 1
10
259.608561
20
551.091362
11
258.981276
21
550.103058
0
LINE
8
Layer 1
10
258.981276
20
550.103058
11
258.779958
21
548.949932
0
LINE
8
Layer 1
10
258.779958
20
548.949932
11
259.035257
21
547.807543
0
LINE
8
Layer 1
10
259.035257
20
547.807543
11
260.385257
21
544.838596
0
LINE
8
Layer 1
10
260.385257
20
544.838596
11
260.387057
21
544.836796
0
LINE
8
Layer 1
10
260.387057
20
544.836796
11
265.262336
21
535.073502
0
LINE
8
Layer 1
10
265.262336
20
535.073502
11
270.609539
21
525.583876
0
LINE
8
Layer 1
10
270.609539
20
525.583876
11
276.357562
21
516.350252
0
LINE
8
Layer 1
10
276.357562
20
516.350252
11
282.435302
21
507.354964
0
LINE
8
Layer 1
10
282.435302
20
507.354964
11
282.437102
21
507.354964
0
LINE
8
Layer 1
10
282.437102
20
507.354964
11
290.856135
21
495.814133
0
LINE
8
Layer 1
10
290.856135
20
495.814133
11
299.628158
21
484.574167
0
LINE
8
Layer 1
10
299.628158
20
484.574167
11
308.648648
21
473.562937
0
LINE
8
Layer 1
10
308.648648
20
473.562937
11
317.813078
21
462.708313
0
LINE
8
Layer 1
10
317.813078
20
462.708313
11
323.397821
21
456.144624
0
LINE
8
Layer 1
10
323.397821
20
456.144624
11
329.217761
21
449.788363
0
LINE
8
Layer 1
10
329.217761
20
449.788363
11
330.174064
21
449.113126
0
LINE
8
Layer 1
10
330.174064
20
449.113126
11
331.315986
21
448.855298
0
LINE
8
Layer 1
10
331.315986
20
448.855298
11
332.469643
21
449.054140
0
LINE
8
Layer 1
10
332.469643
20
449.054140
11
333.459362
21
449.679373
0
LINE
8
Layer 1
10
333.459362
20
449.679373
11
334.143148
21
450.654288
0
LINE
8
Layer 1
10
334.143148
20
450.654288
11
334.391577
21
451.776761
0
LINE
8
Layer 1
10
334.391577
20
451.776761
11
334.201146
21
452.910514
0
LINE
8
Layer 1
10
334.201146
20
452.910514
11
333.568352
21
453.919273
0
LINE
8
Layer 1
10
333.568352
20
453.919273
11
327.895629
21
460.114502
0
LINE
8
Layer 1
10
327.895629
20
460.114502
11
322.451948
21
466.512163
0
LINE
8
Layer 1
10
322.451948
20
466.512163
11
322.415048
21
466.556263
0
LINE
8
Layer 1
10
322.415048
20
466.556263
11
313.282246
21
477.373479
0
LINE
8
Layer 1
10
313.282246
20
477.373479
11
304.325925
21
488.306026
0
LINE
8
Layer 1
10
304.325925
20
488.306026
11
295.647955
21
499.423839
0
LINE
8
Layer 1
10
295.647955
20
499.423839
11
287.350202
21
510.796852
0
LINE
8
Layer 1
10
287.350202
20
510.796852
11
287.350202
21
510.798652
0
LINE
8
Layer 1
10
287.350202
20
510.798652
11
281.388126
21
519.622464
0
LINE
8
Layer 1
10
281.388126
20
519.622464
11
275.768689
21
528.648190
0
LINE
8
Layer 1
10
275.768689
20
528.648190
11
270.558907
21
537.891529
0
LINE
8
Layer 1
10
270.558907
20
537.891529
11
265.825793
21
547.368181
0
LINE
8
Layer 1
10
265.825793
20
547.368181
11
265.825793
21
547.369981
0
LINE
8
Layer 1
10
265.825793
20
547.369981
11
264.523250
21
550.233457
0
LINE
8
Layer 1
10
264.523250
20
550.233457
11
263.850398
21
551.191462
0
LINE
8
Layer 1
10
263.850398
20
551.191462
11
262.862120
21
551.819005
0
LINE
8
Layer 1
10
262.862120
20
551.819005
11
262.862012
21
551.818915
0
LINE
8
Layer 1
10
741.549512
20
450.996073
11
740.441416
21
451.374507
0
LINE
8
Layer 1
10
740.441416
20
451.374507
11
739.272859
21
451.299929
0
LINE
8
Layer 1
10
739.272859
20
451.299929
11
738.221861
21
450.783699
0
LINE
8
Layer 1
10
738.221861
20
450.783699
11
737.448536
21
449.904463
0
LINE
8
Layer 1
10
737.448536
20
449.904463
11
734.571085
21
445.110011
0
LINE
8
Layer 1
10
734.571085
20
445.110011
11
731.548194
21
440.405050
0
LINE
8
Layer 1
10
731.548194
20
440.405050
11
728.384487
21
435.792172
0
LINE
8
Layer 1
10
728.384487
20
435.792172
11
725.084587
21
431.273968
0
LINE
8
Layer 1
10
725.084587
20
431.273968
11
721.653117
21
426.853032
0
LINE
8
Layer 1
10
721.653117
20
426.853032
11
718.094701
21
422.531956
0
LINE
8
Layer 1
10
718.094701
20
422.531956
11
714.413962
21
418.313332
0
LINE
8
Layer 1
10
714.413962
20
418.313332
11
710.615522
21
414.199753
0
LINE
8
Layer 1
10
710.615522
20
414.199753
11
705.480148
21
408.987173
0
LINE
8
Layer 1
10
705.480148
20
408.987173
11
700.160200
21
403.962602
0
LINE
8
Layer 1
10
700.160200
20
403.962602
11
694.663236
21
399.131823
0
LINE
8
Layer 1
10
694.663236
20
399.131823
11
688.996809
21
394.500620
0
LINE
8
Layer 1
10
688.996809
20
394.500620
11
683.168476
21
390.074778
0
LINE
8
Layer 1
10
683.168476
20
390.074778
11
677.185792
21
385.860080
0
LINE
8
Layer 1
10
677.185792
20
385.860080
11
671.056313
21
381.862311
0
LINE
8
Layer 1
10
671.056313
20
381.862311
11
664.787594
21
378.087253
0
LINE
8
Layer 1
10
664.787594
20
378.087253
11
658.266934
21
374.479243
0
LINE
8
Layer 1
10
658.266934
20
374.479243
11
651.632132
21
371.143933
0
LINE
8
Layer 1
10
651.632132
20
371.143933
11
650.692681
21
370.445280
0
LINE
8
Layer 1
10
650.692681
20
370.445280
11
650.092179
21
369.440252
0
LINE
8
Layer 1
10
650.092179
20
369.440252
11
649.922082
21
368.281911
0
LINE
8
Layer 1
10
649.922082
20
368.281911
11
650.208296
21
367.146673
0
LINE
8
Layer 1
10
650.208296
20
367.146673
11
650.906957
21
366.207229
0
LINE
8
Layer 1
10
650.906957
20
366.207229
11
651.911990
21
365.606737
0
LINE
8
Layer 1
10
651.911990
20
365.606737
11
653.070330
21
365.436650
0
LINE
8
Layer 1
10
653.070330
20
365.436650
11
654.205565
21
365.722873
0
LINE
8
Layer 1
10
654.205565
20
365.722873
11
661.078309
21
369.177579
0
LINE
8
Layer 1
10
661.078309
20
369.177579
11
667.786421
21
372.889393
0
LINE
8
Layer 1
10
667.786421
20
372.889393
11
667.790021
21
372.889393
0
LINE
8
Layer 1
10
667.790021
20
372.889393
11
674.243655
21
376.775753
0
LINE
8
Layer 1
10
674.243655
20
376.775753
11
680.553434
21
380.891069
0
LINE
8
Layer 1
10
680.553434
20
380.891069
11
686.711770
21
385.229526
0
LINE
8
Layer 1
10
686.711770
20
385.229526
11
692.711074
21
389.785307
0
LINE
8
Layer 1
10
692.711074
20
389.785307
11
698.543757
21
394.552594
0
LINE
8
Layer 1
10
698.543757
20
394.552594
11
704.202231
21
399.525572
0
LINE
8
Layer 1
10
704.202231
20
399.525572
11
709.678906
21
404.698424
0
LINE
8
Layer 1
10
709.678906
20
404.698424
11
714.966194
21
410.065333
0
LINE
8
Layer 1
10
714.966194
20
410.065333
11
718.878802
21
414.302516
0
LINE
8
Layer 1
10
718.878802
20
414.302516
11
722.671548
21
418.649419
0
LINE
8
Layer 1
10
722.671548
20
418.649419
11
726.339614
21
423.103544
0
LINE
8
Layer 1
10
726.339614
20
423.103544
11
729.878186
21
427.662392
0
LINE
8
Layer 1
10
729.878186
20
427.662392
11
733.282446
21
432.323464
0
LINE
8
Layer 1
10
733.282446
20
432.323464
11
736.547578
21
437.084263
0
LINE
8
Layer 1
10
736.547578
20
437.084263
11
739.668766
21
441.942288
0
LINE
8
Layer 1
10
739.668766
20
441.942288
11
742.641194
21
446.895043
0
LINE
8
Layer 1
10
742.641194
20
446.895043
11
743.022461
21
448.023466
0
LINE
8
Layer 1
10
743.022461
20
448.023466
11
742.944214
21
449.170694
0
LINE
8
Layer 1
10
742.944214
20
449.170694
11
742.441557
21
450.204904
0
LINE
8
Layer 1
10
742.441557
20
450.204904
11
741.549593
21
450.994273
0
LINE
8
Layer 1
10
741.549593
20
450.994273
11
741.549512
21
450.996073
0
LINE
8
Layer 1
10
278.944238
20
446.471503
11
278.277351
21
445.484751
0
LINE
8
Layer 1
10
278.277351
20
445.484751
11
278.048436
21
444.357984
0
LINE
8
Layer 1
10
278.048436
20
444.357984
11
278.258624
21
443.227574
0
LINE
8
Layer 1
10
278.258624
20
443.227574
11
278.909048
21
442.229893
0
LINE
8
Layer 1
10
278.909048
20
442.229893
11
284.554092
21
436.626102
0
LINE
8
Layer 1
10
284.554092
20
436.626102
11
290.330601
21
431.157800
0
LINE
8
Layer 1
10
290.330601
20
431.157800
11
296.235786
21
425.828178
0
LINE
8
Layer 1
10
296.235786
20
425.828178
11
302.266856
21
420.640423
0
LINE
8
Layer 1
10
302.266856
20
420.640423
11
302.279186
21
420.629623
0
LINE
8
Layer 1
10
302.279186
20
420.629623
11
310.636066
21
413.242975
0
LINE
8
Layer 1
10
310.636066
20
413.242975
11
319.261617
21
406.177393
0
LINE
8
Layer 1
10
319.261617
20
406.177393
11
328.141096
21
399.436747
0
LINE
8
Layer 1
10
328.141096
20
399.436747
11
337.259757
21
393.024902
0
LINE
8
Layer 1
10
337.259757
20
393.024902
11
346.602856
21
386.945726
0
LINE
8
Layer 1
10
346.602856
20
386.945726
11
356.155649
21
381.203088
0
LINE
8
Layer 1
10
356.155649
20
381.203088
11
365.903390
21
375.800855
0
LINE
8
Layer 1
10
365.903390
20
375.800855
11
375.831335
21
370.742893
0
LINE
8
Layer 1
10
375.831335
20
370.742893
11
376.984246
21
370.443000
0
LINE
8
Layer 1
10
376.984246
20
370.443000
11
378.123130
21
370.602930
0
LINE
8
Layer 1
10
378.123130
20
370.602930
11
379.118948
21
371.178239
0
LINE
8
Layer 1
10
379.118948
20
371.178239
11
379.842662
21
372.124483
0
LINE
8
Layer 1
10
379.842662
20
372.124483
11
380.142854
21
373.277129
0
LINE
8
Layer 1
10
380.142854
20
373.277129
11
379.983355
21
374.415908
0
LINE
8
Layer 1
10
379.983355
20
374.415908
11
379.408540
21
375.411822
0
LINE
8
Layer 1
10
379.408540
20
375.411822
11
378.462782
21
376.135873
0
LINE
8
Layer 1
10
378.462782
20
376.135873
11
368.718787
21
381.100155
0
LINE
8
Layer 1
10
368.718787
20
381.100155
11
359.153253
21
386.401499
0
LINE
8
Layer 1
10
359.153253
20
386.401499
11
349.780788
21
392.035823
0
LINE
8
Layer 1
10
349.780788
20
392.035823
11
340.615995
21
397.999044
0
LINE
8
Layer 1
10
340.615995
20
397.999044
11
331.673483
21
404.287079
0
LINE
8
Layer 1
10
331.673483
20
404.287079
11
322.967854
21
410.895846
0
LINE
8
Layer 1
10
322.967854
20
410.895846
11
314.513717
21
417.821261
0
LINE
8
Layer 1
10
314.513717
20
417.821261
11
306.325676
21
425.059243
0
LINE
8
Layer 1
10
306.325676
20
425.059243
11
306.223724
21
425.149243
0
LINE
8
Layer 1
10
306.223724
20
425.149243
11
300.275273
21
430.262818
0
LINE
8
Layer 1
10
300.275273
20
430.262818
11
294.451031
21
435.517941
0
LINE
8
Layer 1
10
294.451031
20
435.517941
11
288.753662
21
440.910932
0
LINE
8
Layer 1
10
288.753662
20
440.910932
11
283.185830
21
446.438113
0
LINE
8
Layer 1
10
283.185830
20
446.438113
11
282.198785
21
447.104551
0
LINE
8
Layer 1
10
282.198785
20
447.104551
11
281.071924
21
447.332961
0
LINE
8
Layer 1
10
281.071924
20
447.332961
11
279.941616
21
447.122272
0
LINE
8
Layer 1
10
279.941616
20
447.122272
11
278.944229
21
446.471413
0
LINE
8
Layer 1
10
278.944229
20
446.471413
11
278.944238
21
446.471503
0
LINE
8
Layer 1
10
341.945993
20
444.305833
11
340.807666
21
444.035139
0
LINE
8
Layer 1
10
340.807666
20
444.035139
11
339.859469
21
443.349583
0
LINE
8
Layer 1
10
339.859469
20
443.349583
11
339.237086
21
442.333799
0
LINE
8
Layer 1
10
339.237086
20
442.333799
11
339.058724
21
441.197640
0
LINE
8
Layer 1
10
339.058724
20
441.197640
11
339.319408
21
440.077501
0
LINE
8
Layer 1
10
339.319408
20
440.077501
11
340.014161
21
439.109773
0
LINE
8
Layer 1
10
340.014161
20
439.109773
11
347.203345
21
432.690328
0
LINE
8
Layer 1
10
347.203345
20
432.690328
11
354.637178
21
426.558879
0
LINE
8
Layer 1
10
354.637178
20
426.558879
11
362.300958
21
420.719723
0
LINE
8
Layer 1
10
362.300958
20
420.719723
11
370.179983
21
415.177153
0
LINE
8
Layer 1
10
370.179983
20
415.177153
11
378.879916
21
409.550896
0
LINE
8
Layer 1
10
378.879916
20
409.550896
11
387.794798
21
404.278022
0
LINE
8
Layer 1
10
387.794798
20
404.278022
11
396.909052
21
399.361284
0
LINE
8
Layer 1
10
396.909052
20
399.361284
11
406.207100
21
394.803437
0
LINE
8
Layer 1
10
406.207100
20
394.803437
11
415.673365
21
390.607233
0
LINE
8
Layer 1
10
415.673365
20
390.607233
11
425.292269
21
386.775427
0
LINE
8
Layer 1
10
425.292269
20
386.775427
11
435.048235
21
383.310772
0
LINE
8
Layer 1
10
435.048235
20
383.310772
11
444.925685
21
380.216023
0
LINE
8
Layer 1
10
444.925685
20
380.216023
11
446.112261
21
380.114356
0
LINE
8
Layer 1
10
446.112261
20
380.114356
11
447.207756
21
380.463347
0
LINE
8
Layer 1
10
447.207756
20
380.463347
11
448.092535
21
381.197559
0
LINE
8
Layer 1
10
448.092535
20
381.197559
11
448.646969
21
382.251553
0
LINE
8
Layer 1
10
448.646969
20
382.251553
11
448.750792
21
383.417662
0
LINE
8
Layer 1
10
448.750792
20
383.417662
11
448.400393
21
384.534717
0
LINE
8
Layer 1
10
448.400393
20
384.534717
11
447.649134
21
385.432603
0
LINE
8
Layer 1
10
447.649134
20
385.432603
11
446.611421
21
385.974583
0
LINE
8
Layer 1
10
446.611421
20
385.974583
11
436.948878
21
389.002058
0
LINE
8
Layer 1
10
436.948878
20
389.002058
11
427.406456
21
392.390968
0
LINE
8
Layer 1
10
427.406456
20
392.390968
11
417.999594
21
396.138344
0
LINE
8
Layer 1
10
417.999594
20
396.138344
11
408.743735
21
400.241214
0
LINE
8
Layer 1
10
408.743735
20
400.241214
11
399.654321
21
404.696607
0
LINE
8
Layer 1
10
399.654321
20
404.696607
11
390.746793
21
409.501552
0
LINE
8
Layer 1
10
390.746793
20
409.501552
11
382.036592
21
414.653078
0
LINE
8
Layer 1
10
382.036592
20
414.653078
11
373.539161
21
420.148213
0
LINE
8
Layer 1
10
373.539161
20
420.148213
11
365.845947
21
425.560415
0
LINE
8
Layer 1
10
365.845947
20
425.560415
11
358.365361
21
431.260682
0
LINE
8
Layer 1
10
358.365361
20
431.260682
11
351.111714
21
437.244162
0
LINE
8
Layer 1
10
351.111714
20
437.244162
11
344.099315
21
443.506003
0
LINE
8
Layer 1
10
344.099315
20
443.506003
11
343.102238
21
444.120177
0
LINE
8
Layer 1
10
343.102238
20
444.120177
11
341.945993
21
444.305833
0
LINE
8
Layer 1
10
341.945993
20
444.305833
11
341.945993
21
444.305833
0
LINE
8
Layer 1
10
697.514546
20
434.147443
11
694.032320
21
431.255833
0
LINE
8
Layer 1
10
694.032320
20
431.255833
11
694.092080
21
431.308933
0
LINE
8
Layer 1
10
694.092080
20
431.308933
11
687.852969
21
426.141889
0
LINE
8
Layer 1
10
687.852969
20
426.141889
11
681.435269
21
421.197626
0
LINE
8
Layer 1
10
681.435269
20
421.197626
11
674.848385
21
416.479287
0
LINE
8
Layer 1
10
674.848385
20
416.479287
11
668.101721
21
411.990017
0
LINE
8
Layer 1
10
668.101721
20
411.990017
11
661.204682
21
407.732959
0
LINE
8
Layer 1
10
661.204682
20
407.732959
11
654.166672
21
403.711258
0
LINE
8
Layer 1
10
654.166672
20
403.711258
11
646.997097
21
399.928058
0
LINE
8
Layer 1
10
646.997097
20
399.928058
11
639.705359
21
396.386503
0
LINE
8
Layer 1
10
639.705359
20
396.386503
11
634.079136
21
393.852762
0
LINE
8
Layer 1
10
634.079136
20
393.852762
11
628.391111
21
391.460155
0
LINE
8
Layer 1
10
628.391111
20
391.460155
11
622.645082
21
389.209253
0
LINE
8
Layer 1
10
622.645082
20
389.209253
11
616.844847
21
387.100629
0
LINE
8
Layer 1
10
616.844847
20
387.100629
11
610.994206
21
385.134857
0
LINE
8
Layer 1
10
610.994206
20
385.134857
11
605.096956
21
383.312508
0
LINE
8
Layer 1
10
605.096956
20
383.312508
11
593.177825
21
380.100373
0
LINE
8
Layer 1
10
593.177825
20
380.100373
11
592.099271
21
379.594861
0
LINE
8
Layer 1
10
592.099271
20
379.594861
11
591.325108
21
378.744549
0
LINE
8
Layer 1
10
591.325108
20
378.744549
11
590.926229
21
377.666007
0
LINE
8
Layer 1
10
590.926229
20
377.666007
11
590.973527
21
376.475803
0
LINE
8
Layer 1
10
590.973527
20
376.475803
11
591.479047
21
375.397244
0
LINE
8
Layer 1
10
591.479047
20
375.397244
11
592.329369
21
374.623082
0
LINE
8
Layer 1
10
592.329369
20
374.623082
11
593.407922
21
374.224211
0
LINE
8
Layer 1
10
593.407922
20
374.224211
11
594.598133
21
374.271523
0
LINE
8
Layer 1
10
594.598133
20
374.271523
11
600.717858
21
375.841380
0
LINE
8
Layer 1
10
600.717858
20
375.841380
11
606.798126
21
377.559389
0
LINE
8
Layer 1
10
606.798126
20
377.559389
11
612.835105
21
379.424999
0
LINE
8
Layer 1
10
612.835105
20
379.424999
11
618.824966
21
381.437660
0
LINE
8
Layer 1
10
618.824966
20
381.437660
11
624.763878
21
383.596822
0
LINE
8
Layer 1
10
624.763878
20
383.596822
11
630.648009
21
385.901933
0
LINE
8
Layer 1
10
630.648009
20
385.901933
11
636.473530
21
388.352444
0
LINE
8
Layer 1
10
636.473530
20
388.352444
11
642.236609
21
390.947803
0
LINE
8
Layer 1
10
642.236609
20
390.947803
11
649.708194
21
394.576700
0
LINE
8
Layer 1
10
649.708194
20
394.576700
11
657.055553
21
398.453682
0
LINE
8
Layer 1
10
657.055553
20
398.453682
11
664.269199
21
402.575761
0
LINE
8
Layer 1
10
664.269199
20
402.575761
11
671.339645
21
406.939948
0
LINE
8
Layer 1
10
671.339645
20
406.939948
11
678.257404
21
411.543254
0
LINE
8
Layer 1
10
678.257404
20
411.543254
11
685.012991
21
416.382689
0
LINE
8
Layer 1
10
685.012991
20
416.382689
11
691.596919
21
421.455265
0
LINE
8
Layer 1
10
691.596919
20
421.455265
11
697.999700
21
426.757993
0
LINE
8
Layer 1
10
697.999700
20
426.757993
11
698.059460
21
426.809293
0
LINE
8
Layer 1
10
698.059460
20
426.809293
11
701.314931
21
429.507493
0
LINE
8
Layer 1
10
701.314931
20
429.507493
11
702.059036
21
430.411373
0
LINE
8
Layer 1
10
702.059036
20
430.411373
11
702.400515
21
431.531231
0
LINE
8
Layer 1
10
702.400515
20
431.531231
11
702.287360
21
432.696515
0
LINE
8
Layer 1
10
702.287360
20
432.696515
11
701.736806
21
433.729753
0
LINE
8
Layer 1
10
701.736806
20
433.729753
11
700.832643
21
434.473423
0
LINE
8
Layer 1
10
700.832643
20
434.473423
11
699.712695
21
434.814413
0
LINE
8
Layer 1
10
699.712695
20
434.814413
11
698.547514
21
434.700796
0
LINE
8
Layer 1
10
698.547514
20
434.700796
11
697.514537
21
434.149873
0
LINE
8
Layer 1
10
697.514537
20
434.149873
11
697.514546
21
434.147443
0
LINE
8
Layer 1
10
460.956935
20
382.191793
11
459.787002
21
382.232219
0
LINE
8
Layer 1
10
459.787002
20
382.232219
11
458.690666
21
381.821819
0
LINE
8
Layer 1
10
458.690666
20
381.821819
11
457.834862
21
381.023085
0
LINE
8
Layer 1
10
457.834862
20
381.023085
11
457.349897
21
379.957633
0
LINE
8
Layer 1
10
457.349897
20
379.957633
11
457.312746
21
378.767352
0
LINE
8
Layer 1
10
457.312746
20
378.767352
11
457.720604
21
377.692447
0
LINE
8
Layer 1
10
457.720604
20
377.692447
11
458.501656
21
376.848807
0
LINE
8
Layer 1
10
458.501656
20
376.848807
11
459.584084
21
376.352323
0
LINE
8
Layer 1
10
459.584084
20
376.352323
11
467.483562
21
374.618237
0
LINE
8
Layer 1
10
467.483562
20
374.618237
11
475.429007
21
373.114393
0
LINE
8
Layer 1
10
475.429007
20
373.114393
11
485.378219
21
371.066623
0
LINE
8
Layer 1
10
485.378219
20
371.066623
11
497.093590
21
369.184030
0
LINE
8
Layer 1
10
497.093590
20
369.184030
11
508.880810
21
367.845680
0
LINE
8
Layer 1
10
508.880810
20
367.845680
11
520.715729
21
367.049086
0
LINE
8
Layer 1
10
520.715729
20
367.049086
11
532.574192
21
366.791758
0
LINE
8
Layer 1
10
532.574192
20
366.791758
11
544.432048
21
367.071207
0
LINE
8
Layer 1
10
544.432048
20
367.071207
11
556.265144
21
367.884943
0
LINE
8
Layer 1
10
556.265144
20
367.884943
11
568.049327
21
369.230478
0
LINE
8
Layer 1
10
568.049327
20
369.230478
11
579.760445
21
371.105323
0
LINE
8
Layer 1
10
579.760445
20
371.105323
11
580.866341
21
371.547676
0
LINE
8
Layer 1
10
580.866341
20
371.547676
11
581.688300
21
372.351804
0
LINE
8
Layer 1
10
581.688300
20
372.351804
11
582.148823
21
373.405444
0
LINE
8
Layer 1
10
582.148823
20
373.405444
11
582.170411
21
374.596333
0
LINE
8
Layer 1
10
582.170411
20
374.596333
11
581.728070
21
375.702249
0
LINE
8
Layer 1
10
581.728070
20
375.702249
11
580.923943
21
376.524226
0
LINE
8
Layer 1
10
580.923943
20
376.524226
11
579.870295
21
376.984762
0
LINE
8
Layer 1
10
579.870295
20
376.984762
11
578.679392
21
377.006353
0
LINE
8
Layer 1
10
578.679392
20
377.006353
11
567.235497
21
375.174450
0
LINE
8
Layer 1
10
567.235497
20
375.174450
11
555.719724
21
373.859832
0
LINE
8
Layer 1
10
555.719724
20
373.859832
11
544.156223
21
373.064833
0
LINE
8
Layer 1
10
544.156223
20
373.064833
11
532.569145
21
372.791788
0
LINE
8
Layer 1
10
532.569145
20
372.791788
11
520.982640
21
373.043032
0
LINE
8
Layer 1
10
520.982640
20
373.043032
11
509.420858
21
373.820901
0
LINE
8
Layer 1
10
509.420858
20
373.820901
11
497.907950
21
375.127730
0
LINE
8
Layer 1
10
497.907950
20
375.127730
11
486.468065
21
376.965853
0
LINE
8
Layer 1
10
486.468065
20
376.965853
11
476.608493
21
378.996163
0
LINE
8
Layer 1
10
476.608493
20
378.996163
11
476.459084
21
379.025863
0
LINE
8
Layer 1
10
476.459084
20
379.025863
11
468.684472
21
380.496362
0
LINE
8
Layer 1
10
468.684472
20
380.496362
11
460.956935
21
382.191703
0
LINE
8
Layer 1
10
460.956935
20
382.191703
11
460.956935
21
382.191793
0
LINE
8
Layer 1
10
389.668844
20
369.964393
11
388.685259
21
369.328681
0
LINE
8
Layer 1
10
388.685259
20
369.328681
11
388.020017
21
368.364823
0
LINE
8
Layer 1
10
388.020017
20
368.364823
11
387.773973
21
367.199266
0
LINE
8
Layer 1
10
387.773973
20
367.199266
11
387.986581
21
366.069060
0
LINE
8
Layer 1
10
387.986581
20
366.069060
11
388.607461
21
365.101033
0
LINE
8
Layer 1
10
388.607461
20
365.101033
11
389.586233
21
364.422013
0
LINE
8
Layer 1
10
389.586233
20
364.422013
11
401.972079
21
359.369239
0
LINE
8
Layer 1
10
401.972079
20
359.369239
11
414.550041
21
354.820404
0
LINE
8
Layer 1
10
414.550041
20
354.820404
11
427.299352
21
350.779011
0
LINE
8
Layer 1
10
427.299352
20
350.779011
11
440.199247
21
347.248562
0
LINE
8
Layer 1
10
440.199247
20
347.248562
11
453.228961
21
344.232560
0
LINE
8
Layer 1
10
453.228961
20
344.232560
11
466.367728
21
341.734508
0
LINE
8
Layer 1
10
466.367728
20
341.734508
11
479.594782
21
339.757908
0
LINE
8
Layer 1
10
479.594782
20
339.757908
11
492.889358
21
338.306263
0
LINE
8
Layer 1
10
492.889358
20
338.306263
11
499.905740
21
337.754709
0
LINE
8
Layer 1
10
499.905740
20
337.754709
11
506.934272
21
337.351723
0
LINE
8
Layer 1
10
506.934272
20
337.351723
11
508.091818
21
337.526641
0
LINE
8
Layer 1
10
508.091818
20
337.526641
11
509.094282
21
338.131267
0
LINE
8
Layer 1
10
509.094282
20
338.131267
11
509.789012
21
339.073530
0
LINE
8
Layer 1
10
509.789012
20
339.073530
11
510.070214
21
340.209943
0
LINE
8
Layer 1
10
510.070214
20
340.209943
11
509.889010
21
341.387096
0
LINE
8
Layer 1
10
509.889010
20
341.387096
11
509.291304
21
342.369362
0
LINE
8
Layer 1
10
509.291304
20
342.369362
11
508.368941
21
343.055909
0
LINE
8
Layer 1
10
508.368941
20
343.055909
11
507.213767
21
343.345903
0
LINE
8
Layer 1
10
507.213767
20
343.345903
11
493.421969
21
344.281003
0
LINE
8
Layer 1
10
493.421969
20
344.281003
11
493.420169
21
344.281003
0
LINE
8
Layer 1
10
493.420169
20
344.281003
11
480.362194
21
345.707098
0
LINE
8
Layer 1
10
480.362194
20
345.707098
11
467.370192
21
347.649080
0
LINE
8
Layer 1
10
467.370192
20
347.649080
11
454.464893
21
350.103313
0
LINE
8
Layer 1
10
454.464893
20
350.103313
11
441.667027
21
353.066162
0
LINE
8
Layer 1
10
441.667027
20
353.066162
11
428.997325
21
356.533991
0
LINE
8
Layer 1
10
428.997325
20
356.533991
11
416.476516
21
360.503164
0
LINE
8
Layer 1
10
416.476516
20
360.503164
11
404.125331
21
364.970047
0
LINE
8
Layer 1
10
404.125331
20
364.970047
11
391.964501
21
369.931003
0
LINE
8
Layer 1
10
391.964501
20
369.931003
11
390.819962
21
370.175958
0
LINE
8
Layer 1
10
390.819962
20
370.175958
11
389.668799
21
369.964303
0
LINE
8
Layer 1
10
389.668799
20
369.964303
11
389.668844
21
369.964393
0
LINE
8
Layer 1
10
638.053022
20
365.174413
11
630.353400
21
362.156489
0
LINE
8
Layer 1
10
630.353400
20
362.156489
11
622.569375
21
359.361392
0
LINE
8
Layer 1
10
622.569375
20
359.361392
11
614.707984
21
356.788622
0
LINE
8
Layer 1
10
614.707984
20
356.788622
11
606.776267
21
354.437683
0
LINE
8
Layer 1
10
606.776267
20
354.437683
11
596.412095
21
351.722660
0
LINE
8
Layer 1
10
596.412095
20
351.722660
11
585.957480
21
349.378976
0
LINE
8
Layer 1
10
585.957480
20
349.378976
11
575.425674
21
347.404350
0
LINE
8
Layer 1
10
575.425674
20
347.404350
11
564.829926
21
345.796502
0
LINE
8
Layer 1
10
564.829926
20
345.796502
11
554.183490
21
344.553149
0
LINE
8
Layer 1
10
554.183490
20
344.553149
11
543.499616
21
343.672011
0
LINE
8
Layer 1
10
543.499616
20
343.672011
11
532.791556
21
343.150806
0
LINE
8
Layer 1
10
532.791556
20
343.150806
11
522.072560
21
342.987253
0
LINE
8
Layer 1
10
522.072560
20
342.987253
11
520.904649
21
342.753157
0
LINE
8
Layer 1
10
520.904649
20
342.753157
11
519.950253
21
342.111689
0
LINE
8
Layer 1
10
519.950253
20
342.111689
11
519.305985
21
341.159181
0
LINE
8
Layer 1
10
519.305985
20
341.159181
11
519.068459
21
339.991963
0
LINE
8
Layer 1
10
519.068459
20
339.991963
11
519.302554
21
338.824045
0
LINE
8
Layer 1
10
519.302554
20
338.824045
11
519.944026
21
337.869644
0
LINE
8
Layer 1
10
519.944026
20
337.869644
11
520.896541
21
337.225374
0
LINE
8
Layer 1
10
520.896541
20
337.225374
11
522.063767
21
336.987853
0
LINE
8
Layer 1
10
522.063767
20
336.987853
11
532.982291
21
337.154308
0
LINE
8
Layer 1
10
532.982291
20
337.154308
11
543.891275
21
337.685059
0
LINE
8
Layer 1
10
543.891275
20
337.685059
11
554.777427
21
338.582637
0
LINE
8
Layer 1
10
554.777427
20
338.582637
11
565.627455
21
339.849572
0
LINE
8
Layer 1
10
565.627455
20
339.849572
11
576.428066
21
341.488394
0
LINE
8
Layer 1
10
576.428066
20
341.488394
11
587.165970
21
343.501633
0
LINE
8
Layer 1
10
587.165970
20
343.501633
11
597.827875
21
345.891819
0
LINE
8
Layer 1
10
597.827875
20
345.891819
11
608.400488
21
348.661483
0
LINE
8
Layer 1
10
608.400488
20
348.661483
11
616.493516
21
351.060373
0
LINE
8
Layer 1
10
616.493516
20
351.060373
11
624.516642
21
353.686374
0
LINE
8
Layer 1
10
624.516642
20
353.686374
11
632.462599
21
356.539935
0
LINE
8
Layer 1
10
632.462599
20
356.539935
11
640.324118
21
359.621503
0
LINE
8
Layer 1
10
640.324118
20
359.621503
11
641.300634
21
360.267367
0
LINE
8
Layer 1
10
641.300634
20
360.267367
11
641.955578
21
361.237818
0
LINE
8
Layer 1
10
641.955578
20
361.237818
11
642.189199
21
362.385052
0
LINE
8
Layer 1
10
642.189199
20
362.385052
11
641.965916
21
363.534343
0
LINE
8
Layer 1
10
641.965916
20
363.534343
11
641.319692
21
364.510364
0
LINE
8
Layer 1
10
641.319692
20
364.510364
11
640.349146
21
365.164783
0
LINE
8
Layer 1
10
640.349146
20
365.164783
11
639.202042
21
365.397966
0
LINE
8
Layer 1
10
639.202042
20
365.397966
11
638.053022
21
365.174413
0
LINE
8
Layer 1
10
638.053022
20
365.174413
11
638.053022
21
365.174413
0
LINE
8
Layer 1
10
112.765043
20
209.226553
11
111.427462
21
210.734543
0
LINE
8
Layer 1
10
111.427462
20
210.734543
11
109.822668
21
212.300111
0
LINE
8
Layer 1
10
109.822668
20
212.300111
11
108.122779
21
213.688746
0
LINE
8
Layer 1
10
108.122779
20
213.688746
11
106.499911
21
214.665939
0
LINE
8
Layer 1
10
106.499911
20
214.665939
11
105.771146
21
214.926960
0
LINE
8
Layer 1
10
105.771146
20
214.926960
11
105.126179
21
214.997178
0
LINE
8
Layer 1
10
105.126179
20
214.997178
11
104.586527
21
214.847280
0
LINE
8
Layer 1
10
104.586527
20
214.847280
11
104.173702
21
214.447952
0
LINE
8
Layer 1
10
104.173702
20
214.447952
11
103.909219
21
213.769880
0
LINE
8
Layer 1
10
103.909219
20
213.769880
11
103.814594
21
212.783751
0
LINE
8
Layer 1
10
103.814594
20
212.783751
11
103.911340
21
211.460250
0
LINE
8
Layer 1
10
103.911340
20
211.460250
11
104.220972
21
209.770063
0
LINE
8
Layer 1
10
104.220972
20
209.770063
11
105.366396
21
205.703915
0
LINE
8
Layer 1
10
105.366396
20
205.703915
11
106.827037
21
201.751154
0
LINE
8
Layer 1
10
106.827037
20
201.751154
11
108.502899
21
197.874756
0
LINE
8
Layer 1
10
108.502899
20
197.874756
11
110.293984
21
194.037692
0
LINE
8
Layer 1
10
110.293984
20
194.037692
11
113.821843
21
186.333460
0
LINE
8
Layer 1
10
113.821843
20
186.333460
11
115.358624
21
182.392238
0
LINE
8
Layer 1
10
115.358624
20
182.392238
11
116.610644
21
178.342243
0
LINE
8
Layer 1
10
116.610644
20
178.342243
11
119.795915
21
167.574357
0
LINE
8
Layer 1
10
119.795915
20
167.574357
11
122.652222
21
156.682311
0
LINE
8
Layer 1
10
122.652222
20
156.682311
11
125.089441
21
145.684843
0
LINE
8
Layer 1
10
125.089441
20
145.684843
11
127.017447
21
134.600690
0
LINE
8
Layer 1
10
127.017447
20
134.600690
11
127.762332
21
129.031963
0
LINE
8
Layer 1
10
127.762332
20
129.031963
11
128.346116
21
123.448590
0
LINE
8
Layer 1
10
128.346116
20
123.448590
11
128.757535
21
117.852916
0
LINE
8
Layer 1
10
128.757535
20
117.852916
11
128.985323
21
112.247281
0
LINE
8
Layer 1
10
128.985323
20
112.247281
11
129.018214
21
106.634028
0
LINE
8
Layer 1
10
129.018214
20
106.634028
11
128.844942
21
101.015499
0
LINE
8
Layer 1
10
128.844942
20
101.015499
11
128.454243
21
95.394037
0
LINE
8
Layer 1
10
128.454243
20
95.394037
11
127.834850
21
89.771983
0
LINE
8
Layer 1
10
127.834850
20
89.771983
11
126.940964
21
80.561875
0
LINE
8
Layer 1
10
126.940964
20
80.561875
11
125.788571
21
71.375510
0
LINE
8
Layer 1
10
125.788571
20
71.375510
11
124.187540
21
62.269775
0
LINE
8
Layer 1
10
124.187540
20
62.269775
11
123.159371
21
57.764919
0
LINE
8
Layer 1
10
123.159371
20
57.764919
11
121.947743
21
53.301553
0
LINE
8
Layer 1
10
121.947743
20
53.301553
11
122.599592
21
53.351349
0
LINE
8
Layer 1
10
122.599592
20
53.351349
11
123.239919
21
53.561882
0
LINE
8
Layer 1
10
123.239919
20
53.561882
11
124.482040
21
54.399476
0
LINE
8
Layer 1
10
124.482040
20
54.399476
11
125.666170
21
55.682977
0
LINE
8
Layer 1
10
125.666170
20
55.682977
11
126.784374
21
57.281027
0
LINE
8
Layer 1
10
126.784374
20
57.281027
11
128.791268
21
60.895341
0
LINE
8
Layer 1
10
128.791268
20
60.895341
11
130.439243
21
64.191553
0
LINE
8
Layer 1
10
130.439243
20
64.191553
11
133.088474
21
68.674712
0
LINE
8
Layer 1
10
133.088474
20
68.674712
11
135.521733
21
73.289905
0
LINE
8
Layer 1
10
135.521733
20
73.289905
11
137.744346
21
78.020495
0
LINE
8
Layer 1
10
137.744346
20
78.020495
11
139.761640
21
82.849847
0
LINE
8
Layer 1
10
139.761640
20
82.849847
11
141.578939
21
87.761325
0
LINE
8
Layer 1
10
141.578939
20
87.761325
11
143.201569
21
92.738294
0
LINE
8
Layer 1
10
143.201569
20
92.738294
11
144.634856
21
97.764119
0
LINE
8
Layer 1
10
144.634856
20
97.764119
11
145.884125
21
102.822163
0
LINE
8
Layer 1
10
145.884125
20
102.822163
11
146.647563
21
113.302096
0
LINE
8
Layer 1
10
146.647563
20
113.302096
11
146.921257
21
123.823719
0
LINE
8
Layer 1
10
146.921257
20
123.823719
11
146.698905
21
134.346034
0
LINE
8
Layer 1
10
146.698905
20
134.346034
11
145.974206
21
144.828043
0
LINE
8
Layer 1
10
145.974206
20
144.828043
11
144.123372
21
151.922487
0
LINE
8
Layer 1
10
144.123372
20
151.922487
11
142.061200
21
158.994928
0
LINE
8
Layer 1
10
142.061200
20
158.994928
11
139.742943
21
166.000536
0
LINE
8
Layer 1
10
139.742943
20
166.000536
11
137.123857
21
172.894487
0
LINE
8
Layer 1
10
137.123857
20
172.894487
11
134.159195
21
179.631951
0
LINE
8
Layer 1
10
134.159195
20
179.631951
11
130.804213
21
186.168102
0
LINE
8
Layer 1
10
130.804213
20
186.168102
11
127.014165
21
192.458111
0
LINE
8
Layer 1
10
127.014165
20
192.458111
11
124.942009
21
195.496805
0
LINE
8
Layer 1
10
124.942009
20
195.496805
11
122.744306
21
198.457153
0
LINE
8
Layer 1
10
122.744306
20
198.457153
11
117.929047
21
204.002537
0
LINE
8
Layer 1
10
117.929047
20
204.002537
11
112.765043
21
209.226553
0
LINE
8
Layer 1
10
112.765043
20
209.226553
11
112.765043
21
209.226553
0
LINE
8
Layer 1
10
218.287343
20
203.205553
11
214.740112
21
203.232186
0
LINE
8
Layer 1
10
214.740112
20
203.232186
11
211.136674
21
202.844500
0
LINE
8
Layer 1
10
211.136674
20
202.844500
11
207.541512
21
202.096133
0
LINE
8
Layer 1
10
207.541512
20
202.096133
11
204.019109
21
201.040727
0
LINE
8
Layer 1
10
204.019109
20
201.040727
11
200.633947
21
199.731921
0
LINE
8
Layer 1
10
200.633947
20
199.731921
11
197.450509
21
198.223357
0
LINE
8
Layer 1
10
197.450509
20
198.223357
11
194.533279
21
196.568674
0
LINE
8
Layer 1
10
194.533279
20
196.568674
11
191.946737
21
194.821513
0
LINE
8
Layer 1
10
191.946737
20
194.821513
11
188.741108
21
191.947601
0
LINE
8
Layer 1
10
188.741108
20
191.947601
11
185.712657
21
188.888297
0
LINE
8
Layer 1
10
185.712657
20
188.888297
11
182.861344
21
185.660141
0
LINE
8
Layer 1
10
182.861344
20
185.660141
11
180.187132
21
182.279675
0
LINE
8
Layer 1
10
180.187132
20
182.279675
11
177.689984
21
178.763442
0
LINE
8
Layer 1
10
177.689984
20
178.763442
11
175.369862
21
175.127983
0
LINE
8
Layer 1
10
175.369862
20
175.127983
11
173.226727
21
171.389839
0
LINE
8
Layer 1
10
173.226727
20
171.389839
11
171.260543
21
167.565553
0
LINE
8
Layer 1
10
171.260543
20
167.565553
11
170.132405
21
165.551323
0
LINE
8
Layer 1
10
170.132405
20
165.551323
11
169.042897
21
163.205795
0
LINE
8
Layer 1
10
169.042897
20
163.205795
11
166.992668
21
157.837453
0
LINE
8
Layer 1
10
166.992668
20
157.837453
11
165.135638
21
152.093743
0
LINE
8
Layer 1
10
165.135638
20
152.093743
11
163.497593
21
146.607883
0
LINE
8
Layer 1
10
163.497593
20
146.607883
11
162.409419
21
142.779593
0
LINE
8
Layer 1
10
162.409419
20
142.779593
11
161.681344
21
138.902993
0
LINE
8
Layer 1
10
161.681344
20
138.902993
11
161.238492
21
134.988827
0
LINE
8
Layer 1
10
161.238492
20
134.988827
11
161.005988
21
131.047839
0
LINE
8
Layer 1
10
161.005988
20
131.047839
11
160.872522
21
123.128375
0
LINE
8
Layer 1
10
160.872522
20
123.128375
11
160.681943
21
115.230553
0
LINE
8
Layer 1
10
160.681943
20
115.230553
11
161.181740
21
114.518434
0
LINE
8
Layer 1
10
161.181740
20
114.518434
11
161.673460
21
114.200826
0
LINE
8
Layer 1
10
161.673460
20
114.200826
11
162.156714
21
114.233323
0
LINE
8
Layer 1
10
162.156714
20
114.233323
11
162.631115
21
114.571520
0
LINE
8
Layer 1
10
162.631115
20
114.571520
11
163.551807
21
115.987387
0
LINE
8
Layer 1
10
163.551807
20
115.987387
11
164.432433
21
118.093183
0
LINE
8
Layer 1
10
164.432433
20
118.093183
11
166.061081
21
122.953574
0
LINE
8
Layer 1
10
166.061081
20
122.953574
11
166.802899
21
124.997677
0
LINE
8
Layer 1
10
166.802899
20
124.997677
11
167.492243
21
126.310723
0
LINE
8
Layer 1
10
167.492243
20
126.310723
11
169.025242
21
129.302261
0
LINE
8
Layer 1
10
169.025242
20
129.302261
11
170.838776
21
132.376790
0
LINE
8
Layer 1
10
170.838776
20
132.376790
11
172.842944
21
135.432994
0
LINE
8
Layer 1
10
172.842944
20
135.432994
11
174.947843
21
138.369553
0
LINE
8
Layer 1
10
174.947843
20
138.369553
11
175.948114
21
140.707663
0
LINE
8
Layer 1
10
175.948114
20
140.707663
11
177.157860
21
143.080890
0
LINE
8
Layer 1
10
177.157860
20
143.080890
11
180.012122
21
147.886895
0
LINE
8
Layer 1
10
180.012122
20
147.886895
11
183.123324
21
152.695972
0
LINE
8
Layer 1
10
183.123324
20
152.695972
11
186.104162
21
157.416523
0
LINE
8
Layer 1
10
186.104162
20
157.416523
11
193.233127
21
168.089225
0
LINE
8
Layer 1
10
193.233127
20
168.089225
11
200.547796
21
178.643372
0
LINE
8
Layer 1
10
200.547796
20
178.643372
11
208.196844
21
188.949102
0
LINE
8
Layer 1
10
208.196844
20
188.949102
11
212.193220
21
193.968228
0
LINE
8
Layer 1
10
212.193220
20
193.968228
11
216.328943
21
198.876553
0
LINE
8
Layer 1
10
216.328943
20
198.876553
11
216.314728
21
198.763900
0
LINE
8
Layer 1
10
216.314728
20
198.763900
11
216.703506
21
199.087614
0
LINE
8
Layer 1
10
216.703506
20
199.087614
11
218.032064
21
200.544995
0
LINE
8
Layer 1
10
218.032064
20
200.544995
11
218.642855
21
201.429090
0
LINE
8
Layer 1
10
218.642855
20
201.429090
11
218.998661
21
202.250405
0
LINE
8
Layer 1
10
218.998661
20
202.250405
11
218.934989
21
202.884155
0
LINE
8
Layer 1
10
218.934989
20
202.884155
11
218.694443
21
203.091697
0
LINE
8
Layer 1
10
218.694443
20
203.091697
11
218.287343
21
203.205553
0
LINE
8
Layer 1
10
218.287343
20
203.205553
11
218.287343
21
203.205553
0
LINE
8
Layer 1
10
100.770831
20
102.432553
11
101.815359
21
102.280922
0
LINE
8
Layer 1
10
101.815359
20
102.280922
11
102.701510
21
102.455591
0
LINE
8
Layer 1
10
102.701510
20
102.455591
11
103.441488
21
102.920297
0
LINE
8
Layer 1
10
103.441488
20
102.920297
11
104.047500
21
103.638777
0
LINE
8
Layer 1
10
104.047500
20
103.638777
11
104.531749
21
104.574766
0
LINE
8
Layer 1
10
104.531749
20
104.574766
11
104.906442
21
105.692001
0
LINE
8
Layer 1
10
104.906442
20
105.692001
11
105.375977
21
108.325157
0
LINE
8
Layer 1
10
105.375977
20
108.325157
11
105.553747
21
111.248136
0
LINE
8
Layer 1
10
105.553747
20
111.248136
11
105.537391
21
114.170833
0
LINE
8
Layer 1
10
105.537391
20
114.170833
11
105.312870
21
118.854943
0
LINE
8
Layer 1
10
105.312870
20
118.854943
11
104.484908
21
124.082239
0
LINE
8
Layer 1
10
104.484908
20
124.082239
11
103.350884
21
129.285372
0
LINE
8
Layer 1
10
103.350884
20
129.285372
11
101.872169
21
134.404016
0
LINE
8
Layer 1
10
101.872169
20
134.404016
11
100.010135
21
139.377845
0
LINE
8
Layer 1
10
100.010135
20
139.377845
11
97.726153
21
144.146534
0
LINE
8
Layer 1
10
97.726153
20
144.146534
11
94.981594
21
148.649755
0
LINE
8
Layer 1
10
94.981594
20
148.649755
11
93.424526
21
150.782964
0
LINE
8
Layer 1
10
93.424526
20
150.782964
11
91.737828
21
152.827184
0
LINE
8
Layer 1
10
91.737828
20
152.827184
11
89.916671
21
154.774874
0
LINE
8
Layer 1
10
89.916671
20
154.774874
11
87.956226
21
156.618493
0
LINE
8
Layer 1
10
87.956226
20
156.618493
11
80.331726
21
164.543769
0
LINE
8
Layer 1
10
80.331726
20
164.543769
11
73.004965
21
171.862963
0
LINE
8
Layer 1
10
73.004965
20
171.862963
11
69.753157
21
175.014216
0
LINE
8
Layer 1
10
69.753157
20
175.014216
11
66.301263
21
178.646904
0
LINE
8
Layer 1
10
66.301263
20
178.646904
11
63.008889
21
181.768769
0
LINE
8
Layer 1
10
63.008889
20
181.768769
11
61.534900
21
182.828063
0
LINE
8
Layer 1
10
61.534900
20
182.828063
11
60.235645
21
183.387553
0
LINE
8
Layer 1
10
60.235645
20
183.387553
11
60.173870
21
181.048264
0
LINE
8
Layer 1
10
60.173870
20
181.048264
11
60.312471
21
178.753377
0
LINE
8
Layer 1
10
60.312471
20
178.753377
11
60.635254
21
176.500978
0
LINE
8
Layer 1
10
60.635254
20
176.500978
11
61.126025
21
174.289151
0
LINE
8
Layer 1
10
61.126025
20
174.289151
11
62.546751
21
169.979552
0
LINE
8
Layer 1
10
62.546751
20
169.979552
11
64.445096
21
165.809259
0
LINE
8
Layer 1
10
64.445096
20
165.809259
11
66.691505
21
161.762952
0
LINE
8
Layer 1
10
66.691505
20
161.762952
11
69.156424
21
157.825307
0
LINE
8
Layer 1
10
69.156424
20
157.825307
11
74.223575
21
150.214723
0
LINE
8
Layer 1
10
74.223575
20
150.214723
11
76.450035
21
147.282277
0
LINE
8
Layer 1
10
76.450035
20
147.282277
11
78.790425
21
144.405679
0
LINE
8
Layer 1
10
78.790425
20
144.405679
11
83.419330
21
138.613340
0
LINE
8
Layer 1
10
83.419330
20
138.613340
11
85.511013
21
135.594258
0
LINE
8
Layer 1
10
85.511013
20
135.594258
11
87.322960
21
132.424339
0
LINE
8
Layer 1
10
87.322960
20
132.424339
11
88.756754
21
129.051911
0
LINE
8
Layer 1
10
88.756754
20
129.051911
11
89.713980
21
125.425303
0
LINE
8
Layer 1
10
89.713980
20
125.425303
11
92.074974
21
119.488166
0
LINE
8
Layer 1
10
92.074974
20
119.488166
11
94.534192
21
113.562200
0
LINE
8
Layer 1
10
94.534192
20
113.562200
11
95.880599
21
110.657217
0
LINE
8
Layer 1
10
95.880599
20
110.657217
11
97.347518
21
107.819599
0
LINE
8
Layer 1
10
97.347518
20
107.819599
11
98.966933
21
105.070869
0
LINE
8
Layer 1
10
98.966933
20
105.070869
11
100.770831
21
102.432553
0
LINE
8
Layer 1
10
100.770831
20
102.432553
11
100.770831
21
102.432553
0
LINE
8
Layer 1
10
40.150345
20
138.108553
11
41.566177
21
135.726883
0
LINE
8
Layer 1
10
41.566177
20
135.726883
11
43.321899
21
133.611349
0
LINE
8
Layer 1
10
43.321899
20
133.611349
11
45.340488
21
131.705225
0
LINE
8
Layer 1
10
45.340488
20
131.705225
11
47.544924
21
129.951785
0
LINE
8
Layer 1
10
47.544924
20
129.951785
11
52.203248
21
126.676061
0
LINE
8
Layer 1
10
52.203248
20
126.676061
11
54.503095
21
125.040325
0
LINE
8
Layer 1
10
54.503095
20
125.040325
11
56.680702
21
123.330373
0
LINE
8
Layer 1
10
56.680702
20
123.330373
11
60.170038
21
120.801284
0
LINE
8
Layer 1
10
60.170038
20
120.801284
11
63.477633
21
118.084314
0
LINE
8
Layer 1
10
63.477633
20
118.084314
11
66.610423
21
115.192625
0
LINE
8
Layer 1
10
66.610423
20
115.192625
11
69.575341
21
112.139383
0
LINE
8
Layer 1
10
69.575341
20
112.139383
11
72.379322
21
108.937753
0
LINE
8
Layer 1
10
72.379322
20
108.937753
11
75.029300
21
105.600898
0
LINE
8
Layer 1
10
75.029300
20
105.600898
11
77.532211
21
102.141984
0
LINE
8
Layer 1
10
77.532211
20
102.141984
11
79.894987
21
98.574174
0
LINE
8
Layer 1
10
79.894987
20
98.574174
11
82.124564
21
94.910634
0
LINE
8
Layer 1
10
82.124564
20
94.910634
11
84.227876
21
91.164527
0
LINE
8
Layer 1
10
84.227876
20
91.164527
11
88.083443
21
83.477272
0
LINE
8
Layer 1
10
88.083443
20
83.477272
11
91.517162
21
75.617725
0
LINE
8
Layer 1
10
91.517162
20
75.617725
11
94.584510
21
67.691203
0
LINE
8
Layer 1
10
94.584510
20
67.691203
11
95.289153
21
66.343769
0
LINE
8
Layer 1
10
95.289153
20
66.343769
11
95.904667
21
64.783131
0
LINE
8
Layer 1
10
95.904667
20
64.783131
11
96.917675
21
61.178945
0
LINE
8
Layer 1
10
96.917675
20
61.178945
11
97.722259
21
57.192045
0
LINE
8
Layer 1
10
97.722259
20
57.192045
11
98.417146
21
53.135829
0
LINE
8
Layer 1
10
98.417146
20
53.135829
11
99.101062
21
49.323698
0
LINE
8
Layer 1
10
99.101062
20
49.323698
11
99.872733
21
46.069050
0
LINE
8
Layer 1
10
99.872733
20
46.069050
11
100.322329
21
44.748720
0
LINE
8
Layer 1
10
100.322329
20
44.748720
11
100.830886
21
43.685286
0
LINE
8
Layer 1
10
100.830886
20
43.685286
11
101.410745
21
42.917922
0
LINE
8
Layer 1
10
101.410745
20
42.917922
11
102.074247
21
42.485803
0
LINE
8
Layer 1
10
102.074247
20
42.485803
11
103.262412
21
46.496779
0
LINE
8
Layer 1
10
103.262412
20
46.496779
11
104.132590
21
50.588653
0
LINE
8
Layer 1
10
104.132590
20
50.588653
11
104.710489
21
54.740541
0
LINE
8
Layer 1
10
104.710489
20
54.740541
11
105.021818
21
58.931559
0
LINE
8
Layer 1
10
105.021818
20
58.931559
11
105.092285
21
63.140823
0
LINE
8
Layer 1
10
105.092285
20
63.140823
11
104.947597
21
67.347449
0
LINE
8
Layer 1
10
104.947597
20
67.347449
11
104.613463
21
71.530554
0
LINE
8
Layer 1
10
104.613463
20
71.530554
11
104.115591
21
75.669253
0
LINE
8
Layer 1
10
104.115591
20
75.669253
11
101.714592
21
82.016010
0
LINE
8
Layer 1
10
101.714592
20
82.016010
11
98.817162
21
88.127729
0
LINE
8
Layer 1
10
98.817162
20
88.127729
11
95.490173
21
94.021814
0
LINE
8
Layer 1
10
95.490173
20
94.021814
11
91.800500
21
99.715667
0
LINE
8
Layer 1
10
91.800500
20
99.715667
11
87.815016
21
105.226692
0
LINE
8
Layer 1
10
87.815016
20
105.226692
11
83.600594
21
110.572292
0
LINE
8
Layer 1
10
83.600594
20
110.572292
11
79.224107
21
115.769871
0
LINE
8
Layer 1
10
79.224107
20
115.769871
11
74.752430
21
120.836833
0
LINE
8
Layer 1
10
74.752430
20
120.836833
11
71.310149
21
124.443923
0
LINE
8
Layer 1
10
71.310149
20
124.443923
11
67.613356
21
127.777369
0
LINE
8
Layer 1
10
67.613356
20
127.777369
11
63.692352
21
130.846509
0
LINE
8
Layer 1
10
63.692352
20
130.846509
11
59.577439
21
133.660685
0
LINE
8
Layer 1
10
59.577439
20
133.660685
11
55.298920
21
136.229238
0
LINE
8
Layer 1
10
55.298920
20
136.229238
11
50.887097
21
138.561506
0
LINE
8
Layer 1
10
50.887097
20
138.561506
11
46.372271
21
140.666831
0
LINE
8
Layer 1
10
46.372271
20
140.666831
11
41.784745
21
142.554553
0
LINE
8
Layer 1
10
41.784745
20
142.554553
11
41.179888
21
142.255895
0
LINE
8
Layer 1
10
41.179888
20
142.255895
11
40.715093
21
141.829010
0
LINE
8
Layer 1
10
40.715093
20
141.829010
11
40.154456
21
140.700103
0
LINE
8
Layer 1
10
40.154456
20
140.700103
11
40.000363
21
139.386921
0
LINE
8
Layer 1
10
40.000363
20
139.386921
11
40.150345
21
138.108553
0
LINE
8
Layer 1
10
40.150345
20
138.108553
11
40.150345
21
138.108553
0
LINE
8
Layer 1
10
157.437443
20
59.358553
11
157.439871
21
58.523900
0
LINE
8
Layer 1
10
157.439871
20
58.523900
11
157.812686
21
57.285285
0
LINE
8
Layer 1
10
157.812686
20
57.285285
11
158.462952
21
55.919407
0
LINE
8
Layer 1
10
158.462952
20
55.919407
11
159.297732
21
54.702965
0
LINE
8
Layer 1
10
159.297732
20
54.702965
11
160.224088
21
53.912660
0
LINE
8
Layer 1
10
160.224088
20
53.912660
11
160.692564
21
53.763777
0
LINE
8
Layer 1
10
160.692564
20
53.763777
11
161.149083
21
53.825190
0
LINE
8
Layer 1
10
161.149083
20
53.825190
11
161.582028
21
54.131487
0
LINE
8
Layer 1
10
161.582028
20
54.131487
11
161.979781
21
54.717254
0
LINE
8
Layer 1
10
161.979781
20
54.717254
11
162.330725
21
55.617081
0
LINE
8
Layer 1
10
162.330725
20
55.617081
11
162.623243
21
56.865553
0
LINE
8
Layer 1
10
162.623243
20
56.865553
11
163.539813
21
60.643102
0
LINE
8
Layer 1
10
163.539813
20
60.643102
11
164.677634
21
64.323136
0
LINE
8
Layer 1
10
164.677634
20
64.323136
11
166.027011
21
67.909299
0
LINE
8
Layer 1
10
166.027011
20
67.909299
11
167.578251
21
71.405233
0
LINE
8
Layer 1
10
167.578251
20
71.405233
11
169.321661
21
74.814582
0
LINE
8
Layer 1
10
169.321661
20
74.814582
11
171.247546
21
78.140988
0
LINE
8
Layer 1
10
171.247546
20
78.140988
11
173.346212
21
81.388094
0
LINE
8
Layer 1
10
173.346212
20
81.388094
11
175.607966
21
84.559543
0
LINE
8
Layer 1
10
175.607966
20
84.559543
11
180.861199
21
93.916531
0
LINE
8
Layer 1
10
180.861199
20
93.916531
11
185.948023
21
103.410425
0
LINE
8
Layer 1
10
185.948023
20
103.410425
11
188.303188
21
108.243839
0
LINE
8
Layer 1
10
188.303188
20
108.243839
11
190.465738
21
113.153631
0
LINE
8
Layer 1
10
190.465738
20
113.153631
11
192.385335
21
118.153852
0
LINE
8
Layer 1
10
192.385335
20
118.153852
11
194.011643
21
123.258553
0
LINE
8
Layer 1
10
194.011643
20
123.258553
11
192.123395
21
122.489782
0
LINE
8
Layer 1
10
192.123395
20
122.489782
11
189.952327
21
121.301672
0
LINE
8
Layer 1
10
189.952327
20
121.301672
11
185.118806
21
118.027865
0
LINE
8
Layer 1
10
185.118806
20
118.027865
11
180.225230
21
114.158000
0
LINE
8
Layer 1
10
180.225230
20
114.158000
11
175.985750
21
110.412943
0
LINE
8
Layer 1
10
175.985750
20
110.412943
11
171.734465
21
105.968983
0
LINE
8
Layer 1
10
171.734465
20
105.968983
11
168.129924
21
101.580872
0
LINE
8
Layer 1
10
168.129924
20
101.580872
11
166.520425
21
99.271649
0
LINE
8
Layer 1
10
166.520425
20
99.271649
11
165.012903
21
96.813056
0
LINE
8
Layer 1
10
165.012903
20
96.813056
11
163.587453
21
94.150648
0
LINE
8
Layer 1
10
163.587453
20
94.150648
11
162.224174
21
91.229983
0
LINE
8
Layer 1
10
162.224174
20
91.229983
11
160.849143
21
87.424534
0
LINE
8
Layer 1
10
160.849143
20
87.424534
11
159.747005
21
83.530143
0
LINE
8
Layer 1
10
159.747005
20
83.530143
11
158.892270
21
79.565784
0
LINE
8
Layer 1
10
158.892270
20
79.565784
11
158.259446
21
75.550430
0
LINE
8
Layer 1
10
158.259446
20
75.550430
11
157.823042
21
71.503057
0
LINE
8
Layer 1
10
157.823042
20
71.503057
11
157.557568
21
67.442637
0
LINE
8
Layer 1
10
157.557568
20
67.442637
11
157.437443
21
59.358553
0
LINE
8
Layer 1
10
157.437443
20
59.358553
11
157.437443
21
59.358553
0
LINE
8
Layer 1
10
184.886543
20
79.680553
11
182.996577
21
77.009386
0
LINE
8
Layer 1
10
182.996577
20
77.009386
11
181.361344
21
74.194050
0
LINE
8
Layer 1
10
181.361344
20
74.194050
11
179.959362
21
71.257213
0
LINE
8
Layer 1
10
179.959362
20
71.257213
11
178.769145
21
68.221539
0
LINE
8
Layer 1
10
178.769145
20
68.221539
11
177.769212
21
65.109696
0
LINE
8
Layer 1
10
177.769212
20
65.109696
11
176.938078
21
61.944350
0
LINE
8
Layer 1
10
176.938078
20
61.944350
11
175.696274
21
55.543813
0
LINE
8
Layer 1
10
175.696274
20
55.543813
11
175.564432
21
53.567548
0
LINE
8
Layer 1
10
175.564432
20
53.567548
11
175.696874
21
52.152621
0
LINE
8
Layer 1
10
175.696874
20
52.152621
11
176.063226
21
51.245175
0
LINE
8
Layer 1
10
176.063226
20
51.245175
11
176.633114
21
50.791355
0
LINE
8
Layer 1
10
176.633114
20
50.791355
11
177.376161
21
50.737304
0
LINE
8
Layer 1
10
177.376161
20
50.737304
11
178.261995
21
51.029167
0
LINE
8
Layer 1
10
178.261995
20
51.029167
11
179.260239
21
51.613089
0
LINE
8
Layer 1
10
179.260239
20
51.613089
11
180.340520
21
52.435213
0
LINE
8
Layer 1
10
180.340520
20
52.435213
11
182.625693
21
54.578646
0
LINE
8
Layer 1
10
182.625693
20
54.578646
11
184.874517
21
57.028619
0
LINE
8
Layer 1
10
184.874517
20
57.028619
11
188.291126
21
61.124803
0
LINE
8
Layer 1
10
188.291126
20
61.124803
11
193.453449
21
67.675364
0
LINE
8
Layer 1
10
193.453449
20
67.675364
11
198.374889
21
74.442812
0
LINE
8
Layer 1
10
198.374889
20
74.442812
11
200.666975
21
77.935851
0
LINE
8
Layer 1
10
200.666975
20
77.935851
11
202.804877
21
81.516692
0
LINE
8
Layer 1
10
202.804877
20
81.516692
11
204.757273
21
85.196528
0
LINE
8
Layer 1
10
204.757273
20
85.196528
11
206.492843
21
88.986553
0
LINE
8
Layer 1
10
206.492843
20
88.986553
11
206.333203
21
90.162908
0
LINE
8
Layer 1
10
206.333203
20
90.162908
11
205.860524
21
91.007571
0
LINE
8
Layer 1
10
205.860524
20
91.007571
11
205.113633
21
91.547737
0
LINE
8
Layer 1
10
205.113633
20
91.547737
11
204.131359
21
91.810603
0
LINE
8
Layer 1
10
204.131359
20
91.810603
11
202.952529
21
91.823362
0
LINE
8
Layer 1
10
202.952529
20
91.823362
11
201.615970
21
91.613211
0
LINE
8
Layer 1
10
201.615970
20
91.613211
11
198.624973
21
90.632957
0
LINE
8
Layer 1
10
198.624973
20
90.632957
11
195.468989
21
89.087403
0
LINE
8
Layer 1
10
195.468989
20
89.087403
11
192.458636
21
87.194112
0
LINE
8
Layer 1
10
192.458636
20
87.194112
11
189.904533
21
85.170644
0
LINE
8
Layer 1
10
189.904533
20
85.170644
11
188.117300
21
83.234563
0
LINE
8
Layer 1
10
188.117300
20
83.234563
11
184.886543
21
79.680553
0
LINE
8
Layer 1
10
184.886543
20
79.680553
11
184.886543
21
79.680553
0
LINE
8
Layer 1
10
826.263839
20
209.226553
11
827.601439
21
210.734520
0
LINE
8
Layer 1
10
827.601439
20
210.734520
11
829.206222
21
212.300085
0
LINE
8
Layer 1
10
829.206222
20
212.300085
11
830.906083
21
213.688731
0
LINE
8
Layer 1
10
830.906083
20
213.688731
11
832.528917
21
214.665939
0
LINE
8
Layer 1
10
832.528917
20
214.665939
11
833.257665
21
214.926968
0
LINE
8
Layer 1
10
833.257665
20
214.926968
11
833.902617
21
214.997194
0
LINE
8
Layer 1
10
833.902617
20
214.997194
11
834.442259
21
214.847302
0
LINE
8
Layer 1
10
834.442259
20
214.847302
11
834.855079
21
214.447978
0
LINE
8
Layer 1
10
834.855079
20
214.447978
11
835.119562
21
213.769906
0
LINE
8
Layer 1
10
835.119562
20
213.769906
11
835.214196
21
212.783773
0
LINE
8
Layer 1
10
835.214196
20
212.783773
11
835.117467
21
211.460263
0
LINE
8
Layer 1
10
835.117467
20
211.460263
11
834.807863
21
209.770063
0
LINE
8
Layer 1
10
834.807863
20
209.770063
11
833.662407
21
205.703944
0
LINE
8
Layer 1
10
833.662407
20
205.703944
11
832.201736
21
201.751205
0
LINE
8
Layer 1
10
832.201736
20
201.751205
11
830.525849
21
197.874819
0
LINE
8
Layer 1
10
830.525849
20
197.874819
11
828.734748
21
194.037759
0
LINE
8
Layer 1
10
828.734748
20
194.037759
11
825.206910
21
186.333510
0
LINE
8
Layer 1
10
825.206910
20
186.333510
11
823.670174
21
182.392267
0
LINE
8
Layer 1
10
823.670174
20
182.392267
11
822.418229
21
178.342243
0
LINE
8
Layer 1
10
822.418229
20
178.342243
11
819.232968
21
167.574357
0
LINE
8
Layer 1
10
819.232968
20
167.574357
11
816.376664
21
156.682311
0
LINE
8
Layer 1
10
816.376664
20
156.682311
11
813.939443
21
145.684843
0
LINE
8
Layer 1
10
813.939443
20
145.684843
11
812.011433
21
134.600690
0
LINE
8
Layer 1
10
812.011433
20
134.600690
11
811.266547
21
129.031963
0
LINE
8
Layer 1
10
811.266547
20
129.031963
11
810.682760
21
123.448590
0
LINE
8
Layer 1
10
810.682760
20
123.448590
11
810.271340
21
117.852916
0
LINE
8
Layer 1
10
810.271340
20
117.852916
11
810.043551
21
112.247281
0
LINE
8
Layer 1
10
810.043551
20
112.247281
11
810.010661
21
106.634028
0
LINE
8
Layer 1
10
810.010661
20
106.634028
11
810.183933
21
101.015499
0
LINE
8
Layer 1
10
810.183933
20
101.015499
11
810.574635
21
95.394037
0
LINE
8
Layer 1
10
810.574635
20
95.394037
11
811.194032
21
89.771983
0
LINE
8
Layer 1
10
811.194032
20
89.771983
11
812.087918
21
80.561875
0
LINE
8
Layer 1
10
812.087918
20
80.561875
11
813.240311
21
71.375510
0
LINE
8
Layer 1
10
813.240311
20
71.375510
11
814.841342
21
62.269775
0
LINE
8
Layer 1
10
814.841342
20
62.269775
11
815.869511
21
57.764919
0
LINE
8
Layer 1
10
815.869511
20
57.764919
11
817.081139
21
53.301553
0
LINE
8
Layer 1
10
817.081139
20
53.301553
11
816.429287
21
53.351349
0
LINE
8
Layer 1
10
816.429287
20
53.351349
11
815.788958
21
53.561882
0
LINE
8
Layer 1
10
815.788958
20
53.561882
11
814.546837
21
54.399476
0
LINE
8
Layer 1
10
814.546837
20
54.399476
11
813.362708
21
55.682977
0
LINE
8
Layer 1
10
813.362708
20
55.682977
11
812.244504
21
57.281027
0
LINE
8
Layer 1
10
812.244504
20
57.281027
11
810.237607
21
60.895341
0
LINE
8
Layer 1
10
810.237607
20
60.895341
11
808.589612
21
64.191553
0
LINE
8
Layer 1
10
808.589612
20
64.191553
11
805.940381
21
68.674712
0
LINE
8
Layer 1
10
805.940381
20
68.674712
11
803.507122
21
73.289905
0
LINE
8
Layer 1
10
803.507122
20
73.289905
11
801.284509
21
78.020495
0
LINE
8
Layer 1
10
801.284509
20
78.020495
11
799.267215
21
82.849847
0
LINE
8
Layer 1
10
799.267215
20
82.849847
11
797.449916
21
87.761325
0
LINE
8
Layer 1
10
797.449916
20
87.761325
11
795.827286
21
92.738294
0
LINE
8
Layer 1
10
795.827286
20
92.738294
11
794.393999
21
97.764119
0
LINE
8
Layer 1
10
794.393999
20
97.764119
11
793.144730
21
102.822163
0
LINE
8
Layer 1
10
793.144730
20
102.822163
11
792.381292
21
113.302096
0
LINE
8
Layer 1
10
792.381292
20
113.302096
11
792.107598
21
123.823719
0
LINE
8
Layer 1
10
792.107598
20
123.823719
11
792.329950
21
134.346034
0
LINE
8
Layer 1
10
792.329950
20
134.346034
11
793.054649
21
144.828043
0
LINE
8
Layer 1
10
793.054649
20
144.828043
11
794.905483
21
151.922491
0
LINE
8
Layer 1
10
794.905483
20
151.922491
11
796.967655
21
158.994940
0
LINE
8
Layer 1
10
796.967655
20
158.994940
11
799.285913
21
166.000560
0
LINE
8
Layer 1
10
799.285913
20
166.000560
11
801.905000
21
172.894520
0
LINE
8
Layer 1
10
801.905000
20
172.894520
11
804.869664
21
179.631990
0
LINE
8
Layer 1
10
804.869664
20
179.631990
11
808.224649
21
186.168140
0
LINE
8
Layer 1
10
808.224649
20
186.168140
11
812.014702
21
192.458137
0
LINE
8
Layer 1
10
812.014702
20
192.458137
11
814.086861
21
195.496820
0
LINE
8
Layer 1
10
814.086861
20
195.496820
11
816.284567
21
198.457153
0
LINE
8
Layer 1
10
816.284567
20
198.457153
11
821.099830
21
204.002537
0
LINE
8
Layer 1
10
821.099830
20
204.002537
11
826.263839
21
209.226553
0
LINE
8
Layer 1
10
826.263839
20
209.226553
11
826.263839
21
209.226553
0
LINE
8
Layer 1
10
720.741512
20
203.205553
11
724.288743
21
203.232186
0
LINE
8
Layer 1
10
724.288743
20
203.232186
11
727.892181
21
202.844500
0
LINE
8
Layer 1
10
727.892181
20
202.844500
11
731.487343
21
202.096133
0
LINE
8
Layer 1
10
731.487343
20
202.096133
11
735.009746
21
201.040727
0
LINE
8
Layer 1
10
735.009746
20
201.040727
11
738.394908
21
199.731921
0
LINE
8
Layer 1
10
738.394908
20
199.731921
11
741.578346
21
198.223357
0
LINE
8
Layer 1
10
741.578346
20
198.223357
11
744.495576
21
196.568674
0
LINE
8
Layer 1
10
744.495576
20
196.568674
11
747.082118
21
194.821513
0
LINE
8
Layer 1
10
747.082118
20
194.821513
11
750.287747
21
191.947601
0
LINE
8
Layer 1
10
750.287747
20
191.947601
11
753.316198
21
188.888297
0
LINE
8
Layer 1
10
753.316198
20
188.888297
11
756.167511
21
185.660141
0
LINE
8
Layer 1
10
756.167511
20
185.660141
11
758.841723
21
182.279675
0
LINE
8
Layer 1
10
758.841723
20
182.279675
11
761.338871
21
178.763442
0
LINE
8
Layer 1
10
761.338871
20
178.763442
11
763.658993
21
175.127983
0
LINE
8
Layer 1
10
763.658993
20
175.127983
11
765.802128
21
171.389839
0
LINE
8
Layer 1
10
765.802128
20
171.389839
11
767.768312
21
167.565553
0
LINE
8
Layer 1
10
767.768312
20
167.565553
11
768.896450
21
165.551323
0
LINE
8
Layer 1
10
768.896450
20
165.551323
11
769.985958
21
163.205795
0
LINE
8
Layer 1
10
769.985958
20
163.205795
11
772.036187
21
157.837453
0
LINE
8
Layer 1
10
772.036187
20
157.837453
11
773.893217
21
152.093743
0
LINE
8
Layer 1
10
773.893217
20
152.093743
11
775.531262
21
146.607883
0
LINE
8
Layer 1
10
775.531262
20
146.607883
11
776.620366
21
142.779674
0
LINE
8
Layer 1
10
776.620366
20
142.779674
11
777.348113
21
138.903119
0
LINE
8
Layer 1
10
777.348113
20
138.903119
11
777.789761
21
134.988969
0
LINE
8
Layer 1
10
777.789761
20
134.988969
11
778.020571
21
131.047974
0
LINE
8
Layer 1
10
778.020571
20
131.047974
11
778.150712
21
123.128451
0
LINE
8
Layer 1
10
778.150712
20
123.128451
11
778.340612
21
115.230553
0
LINE
8
Layer 1
10
778.340612
20
115.230553
11
777.840815
21
114.518434
0
LINE
8
Layer 1
10
777.840815
20
114.518434
11
777.349095
21
114.200826
0
LINE
8
Layer 1
10
777.349095
20
114.200826
11
776.865841
21
114.233323
0
LINE
8
Layer 1
10
776.865841
20
114.233323
11
776.391440
21
114.571520
0
LINE
8
Layer 1
10
776.391440
20
114.571520
11
775.470748
21
115.987387
0
LINE
8
Layer 1
10
775.470748
20
115.987387
11
774.590122
21
118.093183
0
LINE
8
Layer 1
10
774.590122
20
118.093183
11
772.961474
21
122.953574
0
LINE
8
Layer 1
10
772.961474
20
122.953574
11
772.219656
21
124.997677
0
LINE
8
Layer 1
10
772.219656
20
124.997677
11
771.530312
21
126.310723
0
LINE
8
Layer 1
10
771.530312
20
126.310723
11
769.969029
21
129.347755
0
LINE
8
Layer 1
10
769.969029
20
129.347755
11
767.969060
21
132.577659
0
LINE
8
Layer 1
10
767.969060
20
132.577659
11
765.978743
21
135.740553
0
LINE
8
Layer 1
10
765.978743
20
135.740553
11
764.446412
21
138.576553
0
LINE
8
Layer 1
10
764.446412
20
138.576553
11
754.914246
21
154.260184
0
LINE
8
Layer 1
10
754.914246
20
154.260184
11
749.950872
21
161.986597
0
LINE
8
Layer 1
10
749.950872
20
161.986597
11
744.840357
21
169.616473
0
LINE
8
Layer 1
10
744.840357
20
169.616473
11
739.570994
21
177.135109
0
LINE
8
Layer 1
10
739.570994
20
177.135109
11
734.131071
21
184.527802
0
LINE
8
Layer 1
10
734.131071
20
184.527802
11
728.508880
21
191.779851
0
LINE
8
Layer 1
10
728.508880
20
191.779851
11
722.692712
21
198.876553
0
LINE
8
Layer 1
10
722.692712
20
198.876553
11
722.649086
21
198.915547
0
LINE
8
Layer 1
10
722.649086
20
198.915547
11
722.239172
21
199.275091
0
LINE
8
Layer 1
10
722.239172
20
199.275091
11
720.938614
21
200.601662
0
LINE
8
Layer 1
10
720.938614
20
200.601662
11
720.357037
21
201.391604
0
LINE
8
Layer 1
10
720.357037
20
201.391604
11
720.027306
21
202.147928
0
LINE
8
Layer 1
10
720.027306
20
202.147928
11
720.103953
21
202.782092
0
LINE
8
Layer 1
10
720.103953
20
202.782092
11
720.741512
21
203.205553
0
LINE
8
Layer 1
10
720.741512
20
203.205553
11
720.741512
21
203.205553
0
LINE
8
Layer 1
10
838.258139
20
102.432553
11
837.143829
21
102.377218
0
LINE
8
Layer 1
10
837.143829
20
102.377218
11
836.206164
21
102.658887
0
LINE
8
Layer 1
10
836.206164
20
102.658887
11
835.431471
21
103.239719
0
LINE
8
Layer 1
10
835.431471
20
103.239719
11
834.806078
21
104.081869
0
LINE
8
Layer 1
10
834.806078
20
104.081869
11
834.316312
21
105.147494
0
LINE
8
Layer 1
10
834.316312
20
105.147494
11
833.948499
21
106.398751
0
LINE
8
Layer 1
10
833.948499
20
106.398751
11
833.524044
21
109.306787
0
LINE
8
Layer 1
10
833.524044
20
109.306787
11
833.423332
21
112.503229
0
LINE
8
Layer 1
10
833.423332
20
112.503229
11
833.536978
21
115.685330
0
LINE
8
Layer 1
10
833.536978
20
115.685330
11
833.969819
21
120.795523
0
LINE
8
Layer 1
10
833.969819
20
120.795523
11
834.869330
21
125.768737
0
LINE
8
Layer 1
10
834.869330
20
125.768737
11
836.052063
21
130.708618
0
LINE
8
Layer 1
10
836.052063
20
130.708618
11
837.553315
21
135.561070
0
LINE
8
Layer 1
10
837.553315
20
135.561070
11
839.408383
21
140.271995
0
LINE
8
Layer 1
10
839.408383
20
140.271995
11
841.652565
21
144.787298
0
LINE
8
Layer 1
10
841.652565
20
144.787298
11
844.321157
21
149.052879
0
LINE
8
Layer 1
10
844.321157
20
149.052879
11
847.449457
21
153.014643
0
LINE
8
Layer 1
10
847.449457
20
153.014643
11
849.197028
21
154.864689
0
LINE
8
Layer 1
10
849.197028
20
154.864689
11
851.072762
21
156.618493
0
LINE
8
Layer 1
10
851.072762
20
156.618493
11
858.697019
21
164.543769
0
LINE
8
Layer 1
10
858.697019
20
164.543769
11
866.024174
21
171.862963
0
LINE
8
Layer 1
10
866.024174
20
171.862963
11
869.275935
21
175.014254
0
LINE
8
Layer 1
10
869.275935
20
175.014254
11
872.727897
21
178.646938
0
LINE
8
Layer 1
10
872.727897
20
178.646938
11
876.020264
21
181.768782
0
LINE
8
Layer 1
10
876.020264
20
181.768782
11
877.494163
21
182.828066
0
LINE
8
Layer 1
10
877.494163
20
182.828066
11
878.793239
21
183.387553
0
LINE
8
Layer 1
10
878.793239
20
183.387553
11
878.855099
21
181.048262
0
LINE
8
Layer 1
10
878.855099
20
181.048262
11
878.716564
21
178.753370
0
LINE
8
Layer 1
10
878.716564
20
178.753370
11
878.393830
21
176.500962
0
LINE
8
Layer 1
10
878.393830
20
176.500962
11
877.903094
21
174.289125
0
LINE
8
Layer 1
10
877.903094
20
174.289125
11
876.482394
21
169.979504
0
LINE
8
Layer 1
10
876.482394
20
169.979504
11
874.584032
21
165.809192
0
LINE
8
Layer 1
10
874.584032
20
165.809192
11
872.337574
21
161.762872
0
LINE
8
Layer 1
10
872.337574
20
161.762872
11
869.872586
21
157.825231
0
LINE
8
Layer 1
10
869.872586
20
157.825231
11
864.805286
21
150.214723
0
LINE
8
Layer 1
10
864.805286
20
150.214723
11
862.578769
21
147.282299
0
LINE
8
Layer 1
10
862.578769
20
147.282299
11
860.238367
21
144.405704
0
LINE
8
Layer 1
10
860.238367
20
144.405704
11
855.609502
21
138.613340
0
LINE
8
Layer 1
10
855.609502
20
138.613340
11
853.517832
21
135.594242
0
LINE
8
Layer 1
10
853.517832
20
135.594242
11
851.705867
21
132.424313
0
LINE
8
Layer 1
10
851.705867
20
132.424313
11
850.272004
21
129.051889
0
LINE
8
Layer 1
10
850.272004
20
129.051889
11
849.314639
21
125.425303
0
LINE
8
Layer 1
10
849.314639
20
125.425303
11
846.953740
21
119.488179
0
LINE
8
Layer 1
10
846.953740
20
119.488179
11
844.494558
21
113.562234
0
LINE
8
Layer 1
10
844.494558
20
113.562234
11
843.148174
21
110.657257
0
LINE
8
Layer 1
10
843.148174
20
110.657257
11
841.681293
21
107.819637
0
LINE
8
Layer 1
10
841.681293
20
107.819637
11
840.061939
21
105.070895
0
LINE
8
Layer 1
10
840.061939
20
105.070895
11
838.258139
21
102.432553
0
LINE
8
Layer 1
10
838.258139
20
102.432553
11
838.258139
21
102.432553
0
LINE
8
Layer 1
10
898.878584
20
138.108553
11
897.462737
21
135.726757
0
LINE
8
Layer 1
10
897.462737
20
135.726757
11
895.707006
21
133.611171
0
LINE
8
Layer 1
10
895.707006
20
133.611171
11
893.688414
21
131.705051
0
LINE
8
Layer 1
10
893.688414
20
131.705051
11
891.483981
21
129.951650
0
LINE
8
Layer 1
10
891.483981
20
129.951650
11
886.825683
21
126.676036
0
LINE
8
Layer 1
10
886.825683
20
126.676036
11
884.525860
21
125.040333
0
LINE
8
Layer 1
10
884.525860
20
125.040333
11
882.348284
21
123.330373
0
LINE
8
Layer 1
10
882.348284
20
123.330373
11
878.858890
21
120.801329
0
LINE
8
Layer 1
10
878.858890
20
120.801329
11
875.551245
21
118.084391
0
LINE
8
Layer 1
10
875.551245
20
118.084391
11
872.418416
21
115.192725
0
LINE
8
Layer 1
10
872.418416
20
115.192725
11
869.453466
21
112.139497
0
LINE
8
Layer 1
10
869.453466
20
112.139497
11
866.649460
21
108.937873
0
LINE
8
Layer 1
10
866.649460
20
108.937873
11
863.999463
21
105.601017
0
LINE
8
Layer 1
10
863.999463
20
105.601017
11
861.496539
21
102.142096
0
LINE
8
Layer 1
10
861.496539
20
102.142096
11
859.133754
21
98.574275
0
LINE
8
Layer 1
10
859.133754
20
98.574275
11
856.904172
21
94.910721
0
LINE
8
Layer 1
10
856.904172
20
94.910721
11
854.800857
21
91.164598
0
LINE
8
Layer 1
10
854.800857
20
91.164598
11
850.945290
21
83.477310
0
LINE
8
Layer 1
10
850.945290
20
83.477310
11
847.511571
21
75.617736
0
LINE
8
Layer 1
10
847.511571
20
75.617736
11
844.444217
21
67.691203
0
LINE
8
Layer 1
10
844.444217
20
67.691203
11
843.739628
21
66.343741
0
LINE
8
Layer 1
10
843.739628
20
66.343741
11
843.124165
21
64.783087
0
LINE
8
Layer 1
10
843.124165
20
64.783087
11
842.111246
21
61.178894
0
LINE
8
Layer 1
10
842.111246
20
61.178894
11
841.306732
21
57.192013
0
LINE
8
Layer 1
10
841.306732
20
57.192013
11
840.611894
21
53.135829
0
LINE
8
Layer 1
10
840.611894
20
53.135829
11
839.928003
21
49.323730
0
LINE
8
Layer 1
10
839.928003
20
49.323730
11
839.156328
21
46.069101
0
LINE
8
Layer 1
10
839.156328
20
46.069101
11
838.706719
21
44.748772
0
LINE
8
Layer 1
10
838.706719
20
44.748772
11
838.198142
21
43.685330
0
LINE
8
Layer 1
10
838.198142
20
43.685330
11
837.618254
21
42.917949
0
LINE
8
Layer 1
10
837.618254
20
42.917949
11
836.954714
21
42.485803
0
LINE
8
Layer 1
10
836.954714
20
42.485803
11
835.766677
21
46.496831
0
LINE
8
Layer 1
10
835.766677
20
46.496831
11
834.896507
21
50.588729
0
LINE
8
Layer 1
10
834.896507
20
50.588729
11
834.318542
21
54.740620
0
LINE
8
Layer 1
10
834.318542
20
54.740620
11
834.007121
21
58.931627
0
LINE
8
Layer 1
10
834.007121
20
58.931627
11
833.936580
21
63.140871
0
LINE
8
Layer 1
10
833.936580
20
63.140871
11
834.081258
21
67.347475
0
LINE
8
Layer 1
10
834.081258
20
67.347475
11
834.415493
21
71.530561
0
LINE
8
Layer 1
10
834.415493
20
71.530561
11
834.913622
21
75.669253
0
LINE
8
Layer 1
10
834.913622
20
75.669253
11
837.314792
21
82.015940
0
LINE
8
Layer 1
10
837.314792
20
82.015940
11
840.212294
21
88.127641
0
LINE
8
Layer 1
10
840.212294
20
88.127641
11
843.539282
21
94.021743
0
LINE
8
Layer 1
10
843.539282
20
94.021743
11
847.228910
21
99.715633
0
LINE
8
Layer 1
10
847.228910
20
99.715633
11
851.214334
21
105.226700
0
LINE
8
Layer 1
10
851.214334
20
105.226700
11
855.428706
21
110.572330
0
LINE
8
Layer 1
10
855.428706
20
110.572330
11
859.805181
21
115.769912
0
LINE
8
Layer 1
10
859.805181
20
115.769912
11
864.276914
21
120.836833
0
LINE
8
Layer 1
10
864.276914
20
120.836833
11
867.719223
21
124.443816
0
LINE
8
Layer 1
10
867.719223
20
124.443816
11
871.415995
21
127.777204
0
LINE
8
Layer 1
10
871.415995
20
127.777204
11
875.336940
21
130.846327
0
LINE
8
Layer 1
10
875.336940
20
130.846327
11
879.451771
21
133.660517
0
LINE
8
Layer 1
10
879.451771
20
133.660517
11
883.730199
21
136.229103
0
LINE
8
Layer 1
10
883.730199
20
136.229103
11
888.141936
21
138.561418
0
LINE
8
Layer 1
10
888.141936
20
138.561418
11
892.656694
21
140.666791
0
LINE
8
Layer 1
10
892.656694
20
140.666791
11
897.244184
21
142.554553
0
LINE
8
Layer 1
10
897.244184
20
142.554553
11
897.848972
21
142.256020
0
LINE
8
Layer 1
10
897.848972
20
142.256020
11
898.313811
21
141.829085
0
LINE
8
Layer 1
10
898.313811
20
141.829085
11
898.874691
21
140.699833
0
LINE
8
Layer 1
10
898.874691
20
140.699833
11
899.028918
21
139.386440
0
LINE
8
Layer 1
10
899.028918
20
139.386440
11
898.878584
21
138.108553
0
LINE
8
Layer 1
10
898.878584
20
138.108553
11
898.878584
21
138.108553
0
LINE
8
Layer 1
10
781.591412
20
59.358553
11
781.588984
21
58.523900
0
LINE
8
Layer 1
10
781.588984
20
58.523900
11
781.216169
21
57.285285
0
LINE
8
Layer 1
10
781.216169
20
57.285285
11
780.565903
21
55.919407
0
LINE
8
Layer 1
10
780.565903
20
55.919407
11
779.731123
21
54.702965
0
LINE
8
Layer 1
10
779.731123
20
54.702965
11
778.804767
21
53.912660
0
LINE
8
Layer 1
10
778.804767
20
53.912660
11
778.336291
21
53.763777
0
LINE
8
Layer 1
10
778.336291
20
53.763777
11
777.879772
21
53.825190
0
LINE
8
Layer 1
10
777.879772
20
53.825190
11
777.446827
21
54.131487
0
LINE
8
Layer 1
10
777.446827
20
54.131487
11
777.049074
21
54.717254
0
LINE
8
Layer 1
10
777.049074
20
54.717254
11
776.698130
21
55.617081
0
LINE
8
Layer 1
10
776.698130
20
55.617081
11
776.405612
21
56.865553
0
LINE
8
Layer 1
10
776.405612
20
56.865553
11
775.489042
21
60.643102
0
LINE
8
Layer 1
10
775.489042
20
60.643102
11
774.351221
21
64.323136
0
LINE
8
Layer 1
10
774.351221
20
64.323136
11
773.001844
21
67.909299
0
LINE
8
Layer 1
10
773.001844
20
67.909299
11
771.450603
21
71.405233
0
LINE
8
Layer 1
10
771.450603
20
71.405233
11
769.707194
21
74.814582
0
LINE
8
Layer 1
10
769.707194
20
74.814582
11
767.781309
21
78.140988
0
LINE
8
Layer 1
10
767.781309
20
78.140988
11
765.682643
21
81.388094
0
LINE
8
Layer 1
10
765.682643
20
81.388094
11
763.420889
21
84.559543
0
LINE
8
Layer 1
10
763.420889
20
84.559543
11
758.167656
21
93.916531
0
LINE
8
Layer 1
10
758.167656
20
93.916531
11
753.080832
21
103.410425
0
LINE
8
Layer 1
10
753.080832
20
103.410425
11
750.725667
21
108.243839
0
LINE
8
Layer 1
10
750.725667
20
108.243839
11
748.563117
21
113.153631
0
LINE
8
Layer 1
10
748.563117
20
113.153631
11
746.643520
21
118.153852
0
LINE
8
Layer 1
10
746.643520
20
118.153852
11
745.017212
21
123.258553
0
LINE
8
Layer 1
10
745.017212
20
123.258553
11
747.092897
21
122.328861
0
LINE
8
Layer 1
10
747.092897
20
122.328861
11
749.438752
21
121.013523
0
LINE
8
Layer 1
10
749.438752
20
121.013523
11
754.583314
21
117.528500
0
LINE
8
Layer 1
10
754.583314
20
117.528500
11
759.735595
21
113.408675
0
LINE
8
Layer 1
10
759.735595
20
113.408675
11
764.180291
21
109.259233
0
LINE
8
Layer 1
10
764.180291
20
109.259233
11
768.234111
21
104.915494
0
LINE
8
Layer 1
10
768.234111
20
104.915494
11
771.677446
21
100.498982
0
LINE
8
Layer 1
10
771.677446
20
100.498982
11
773.212637
21
98.155707
0
LINE
8
Layer 1
10
773.212637
20
98.155707
11
774.646152
21
95.664965
0
LINE
8
Layer 1
10
774.646152
20
95.664965
11
775.994973
21
92.983664
0
LINE
8
Layer 1
10
775.994973
20
92.983664
11
777.276083
21
90.068713
0
LINE
8
Layer 1
10
777.276083
20
90.068713
11
778.501015
21
86.379493
0
LINE
8
Layer 1
10
778.501015
20
86.379493
11
779.490580
21
82.614881
0
LINE
8
Layer 1
10
779.490580
20
82.614881
11
780.264529
21
78.791208
0
LINE
8
Layer 1
10
780.264529
20
78.791208
11
780.842618
21
74.924807
0
LINE
8
Layer 1
10
780.842618
20
74.924807
11
781.244597
21
71.032009
0
LINE
8
Layer 1
10
781.244597
20
71.032009
11
781.490221
21
67.129146
0
LINE
8
Layer 1
10
781.490221
20
67.129146
11
781.591412
21
59.358553
0
LINE
8
Layer 1
10
781.591412
20
59.358553
11
781.591412
21
59.358553
0
LINE
8
Layer 1
10
754.142312
20
79.680553
11
756.033616
21
77.010235
0
LINE
8
Layer 1
10
756.033616
20
77.010235
11
757.669677
21
74.195240
0
LINE
8
Layer 1
10
757.669677
20
74.195240
11
759.072105
21
71.258368
0
LINE
8
Layer 1
10
759.072105
20
71.258368
11
760.262512
21
68.222417
0
LINE
8
Layer 1
10
760.262512
20
68.222417
11
761.262512
21
65.110187
0
LINE
8
Layer 1
10
761.262512
20
65.110187
11
762.093715
21
61.944477
0
LINE
8
Layer 1
10
762.093715
20
61.944477
11
763.336181
21
55.543813
0
LINE
8
Layer 1
10
763.336181
20
55.543813
11
763.468023
21
53.567548
0
LINE
8
Layer 1
10
763.468023
20
53.567548
11
763.335581
21
52.152621
0
LINE
8
Layer 1
10
763.335581
20
52.152621
11
762.969228
21
51.245175
0
LINE
8
Layer 1
10
762.969228
20
51.245175
11
762.399341
21
50.791355
0
LINE
8
Layer 1
10
762.399341
20
50.791355
11
761.656293
21
50.737304
0
LINE
8
Layer 1
10
761.656293
20
50.737304
11
760.770460
21
51.029167
0
LINE
8
Layer 1
10
760.770460
20
51.029167
11
759.772215
21
51.613089
0
LINE
8
Layer 1
10
759.772215
20
51.613089
11
758.691933
21
52.435213
0
LINE
8
Layer 1
10
758.691933
20
52.435213
11
756.406759
21
54.578646
0
LINE
8
Layer 1
10
756.406759
20
54.578646
11
754.157934
21
57.028619
0
LINE
8
Layer 1
10
754.157934
20
57.028619
11
750.741320
21
61.124803
0
LINE
8
Layer 1
10
750.741320
20
61.124803
11
745.578998
21
67.675364
0
LINE
8
Layer 1
10
745.578998
20
67.675364
11
740.657561
21
74.442812
0
LINE
8
Layer 1
10
740.657561
20
74.442812
11
738.365477
21
77.935851
0
LINE
8
Layer 1
10
738.365477
20
77.935851
11
736.227577
21
81.516692
0
LINE
8
Layer 1
10
736.227577
20
81.516692
11
734.275181
21
85.196528
0
LINE
8
Layer 1
10
734.275181
20
85.196528
11
732.539612
21
88.986553
0
LINE
8
Layer 1
10
732.539612
20
88.986553
11
732.699252
21
90.162908
0
LINE
8
Layer 1
10
732.699252
20
90.162908
11
733.171931
21
91.007571
0
LINE
8
Layer 1
10
733.171931
20
91.007571
11
733.918822
21
91.547737
0
LINE
8
Layer 1
10
733.918822
20
91.547737
11
734.901096
21
91.810603
0
LINE
8
Layer 1
10
734.901096
20
91.810603
11
736.079926
21
91.823362
0
LINE
8
Layer 1
10
736.079926
20
91.823362
11
737.416485
21
91.613211
0
LINE
8
Layer 1
10
737.416485
20
91.613211
11
740.407482
21
90.632957
0
LINE
8
Layer 1
10
740.407482
20
90.632957
11
743.563466
21
89.087403
0
LINE
8
Layer 1
10
743.563466
20
89.087403
11
746.573819
21
87.194112
0
LINE
8
Layer 1
10
746.573819
20
87.194112
11
749.127921
21
85.170644
0
LINE
8
Layer 1
10
749.127921
20
85.170644
11
750.915155
21
83.234563
0
LINE
8
Layer 1
10
750.915155
20
83.234563
11
754.142312
21
79.680553
0
LINE
8
Layer 1
10
754.142312
20
79.680553
11
754.142312
21
79.680553
 0 
ENDSEC
 0 
EOF